PrimaNota.ru - самый крупный в мире бесплатный архив песенных текстов, аккордов, табулатур и нот


Wöyh - Koukkunokka - таба, видео

Регистрация Запомнить меня
Войти через:  Facebook Google Twitter Vk Yandex Mail.ru

Wöyh - Koukkunokka - таба, видео

Печатать
Просмотров: 60
-------------------------------------------------------------------------------
                             Wöyh! - Koukkunokka
-------------------------------------------------------------------------------

Tabbed by: myskimasa

Tuning: drop D

INTRO
e|-----------------------------------------------------------|
B|-----------------------------------------------------------|
G|---------------------------0------0------------------------|
D|-----4----------4--------------------------4-------4-0-----|
A|-------------0-----------9------9----------------0---0-----|
D|-4-----4-6----------6-10-----10-----4----4---4-6-----0-----|

e|-----------------------------------------------------------|
B|-----------------------------------------------------------|
G|---------------------------0------0------------------------|
D|-----4----------4--------------------------4-------4-0-----|
A|-------------0-----------9------9----------------0---0-----|
D|-4-----4-6----------6-10-----10-----4----4---4-6-----0-----|

e|-------------------------------------------------------------------|
B|-----2-----3-------------------------2-----3-----------------------|
G|-----0-----0-------0-----0-----------0-----0-------0-----0-----0---|
D|---------------0h2---2/3---3-2-----------------0h2---2/3---3/5-----|
A|-1-----1-------------------------1-----1---------------------------|
D|-------------------------------------------------------------------|

e|---------------------------------------------------------------------|
B|---------------------------------------------------------------------|
G|-----2-------0-----0-----0---0---------2-------0-----0-----0---------|
D|-----0---0h2---2/3---3/5---5---5-3-----0---0h2---2/3---3/5-----------|
A|---------------------------------------------------------------5-4-3-|
D|-0---------------------------------0---------------------------------|

e|---------------------------------------------------|
B|-----2-----3-------------------------2-----2---3---|
G|-----0-----0-------0-----0-----------0-----0---0---|
D|---------------0h2---2/3---3-2---------------------|
A|-1-----1-------------------------1-----1-----1-----|
D|---------------------------------------------------|

VERSE
e|-------------------------------------------------------------------------|
B|-------------------------------------------------------------------------|
G|-----------------------4-----4---7-------------------------4-----4---7---|
D|-4-4p2p0---------------5-----5---7---4-4p2p0---------------5-----5---7---|
A|-------------0h2---------------------------------0h2---------------------|
D|-----------4-----0---0---0-0---0---------------4-----0---0-----0---0-----|

e|-----------------------------------------------------|
B|-----------------------------------------------------|
G|-----------------------4-----4---7-------------------|
D|-4-4p2p0---------------5-----5---7---4-4p2p0---------|
A|-------------0h2---------------------------------0h2-|
D|-----------4-----0---0---0-0---0---------------4-----|

CHORUS 1
e|-----------------------------------------------|
B|-----------------------------------------------|
G|-------5-----5-------5-----5-------5-----5---5-|
D|-------7-----7-------7-----7-------7-----7---7-|
A|-----------------------------------------------|
D|-2--/3---3-3---2--/3---3-3---2--/3---3-3---3---|

VERSE 2 as above

INTERLUDE
e|-----------------------------------------------------------|
B|-----------------------------------------------------------|
G|---------------------------0------0------------------------|
D|-----4----------4--------------------------4-------4-0-----|
A|-------------0-----------9------9----------------0---0-----|
D|-4-----4-6----------6-10-----10-----4----4---4-6-----0-----|

e|-----------------------------------------------------------|
B|-----------------------------------------------------------|
G|---------------------------0------0------------------------|
D|-----4----------4--------------------------4-------4-0-----|
A|-------------0-----------9------9----------------0---0-----|
D|-4-----4-6----------6-10-----10-----4----4---4-6-----0-----|

e|-------------------------------------------------------------------|
B|-----2-----3-------3-----3-----------2-----3-----------------------|
G|-----0-----0---0h2---2/3---3-2-------0-----0-------0-----0-----0---|
D|-----------------------------------------------0h2---2/3---3/5-----|
A|-1-----1-------------------------1-----1---------------------------|
D|-------------------------------------------------------------------|

e|---------------------------------------------------------------------|
B|---------------------------------------------------------------------|
G|-----2-------0-----0-----0---0---------2-------0-----0-----0---------|
D|-----0---0h2---2/3---3/5---5---5-3-----0---0h2---2/3---3/5-----------|
A|---------------------------------------------------------------5-4-3-|
D|-0---------------------------------0---------------------------------|

e|---------------------------------------------------|
B|-----2-----3-------3-----0-----------2-----2---3---|
G|-----0-----0---0h2---2/3---3-2-------0-----0---0---|
D|---------------------------------------------------|
A|-1-----1-------------------------1-----1-----1-----|
D|---------------------------------------------------|

CHORUS 2
e|---------------------------------------------------|
B|---------------------------------------------------|
G|-------5-----5-------5-----5-------5-------5-----5-|
D|-------7-----7-------7-----7-------7-------7-----7-|
A|---------------------------------------------------|
D|-2--/3---3-3---2--/3---3-3---2--/3---2--/3---3-3---|

e|---------------------------------------------------|
B|---------------------------------------------------|
G|-------5-----5-------5-----5-------5-------5-----5-|
D|-------7-----7-------7-----7-------7-------7-----7-|
A|---------------------------------------------------|
D|-2--/3---3-3---2--/3---3-3---2--/3---2--/3---3-3---|

BRIDGE
e|---------------------------------------------------------------|
B|----------------------------0------------------------------0---|
G|---------------------------------------------------------------|
D|-----3-------7-------7--------------3-------7-------7----------|
A|---0-------0-------0--------------0-------0-------0------------|
D|-3-----3-7-----7-9-----9-10---3-------3-7-----7-9-----9-10---3-|

e|------------------------------------------------|
B|----------------------------0-------------------|
G|------------------------------------------------|
D|-----3-------7-------7--------------3-------3-0-|
A|---0-------0-------0--------------0-------0---0-|
D|-------3-7-----7-9-----9-10---3-------3-2-----0-|

VERSE 3 as above

OUTRO
e|---------------------------------------------------------------|
B|----------------------------0------------------------------0---|
G|---------------------------------------------------------------|
D|-----3-------7-------7--------------3-------7-------7----------|
A|---0-------0-------0--------------0-------0-------0------------|
D|-3-----3-7-----7-9-----9-10---3-------3-7-----7-9-----9-10---3-|

e|------------------------------------------------|
B|----------------------------0-------------------|
G|------------------------------------------------|
D|-----3-------7-------7------------------------0-|
A|---0-------0-------0------------4-4p2p0---0h2-0-|
D|-------3-7-----7-9-----9-10---3---------0-----0-|



************************************

| /   slide up
| \   slide down
| h   hammer-on
| p   pull-off
| ~   vibrato
| +   harmonic
| x   Mute note
| b   Bend
| pb  Pre-bend
| br  Bend release
| pbr Pre-bend release
| brb Bend release bend

************************************
Добавлено: 12.03.2016
Другие материалы по этой песне:
  • Аккорды и текст

Страница создана 12.03.2016
http://primanota.ru/woyh/koukkunokka-chords.htm
Привет, Гость.
Предлагаем пройти революционный курс по гитаре.
Подарок от PrimaNota.Ru, забирай!