PrimaNota.ru - самый крупный в мире бесплатный архив песенных текстов, аккордов, табулатур и нот


Wöyh - Kaskelotti - таба, видео

Регистрация Запомнить меня
Войти через:  Facebook Google Twitter Vk Yandex Mail.ru

Wöyh - Kaskelotti - таба, видео

Печатать
Просмотров: 68
-----------------------------------------------------------------
                       Wöyh! - Kaskelotti
-----------------------------------------------------------------

Tabbed by: ayzquz / myskimasa

Tuning: standard

I feel sorry for 'ayzquz'. He had done great job with these chords
but the tab got rejected. I made the some improvements and added
tab for the instrumental part. Chord legend far below.


e|-----------------------------------------------------------|
B|-----------------------------------------------------------|
G|-----------------------------------------------------------|
D|-----------------------4-5--4------------------------------|
A|-4--5-7--5-4---4--5-7---------7--5--4-5-4-5-4--4-5-4-5-4--~|
E|-----------------------------------------------------------|

Bm    A    F#           G
Meri, joka rantaa tuijottaa
     Bm             A           D     B/D#
Näki hyisen mustan hahmon öisin saalispuuhissaan.

Em   B    Em             B            
Meri, sen aallot peittää töiden jäljet
Em              B            C#
Hiekkaa heittää päälle keitosten.


  Aamu valkenee, Kaskelotti näin se ryhtyy houkuttelemaan
e|-----------------------------------------------------------|
B|-----------------------------------------------------------|
G|-----------------------------------------------------------|
D|-----------------------4-5--4------------------------------|
A|-4--5-7--5-4---4--5-7---------7--5--4-5-4-5-4--4-5-4-5-4--~|
E|-----------------------------------------------------------|


Bm              F#
   Istu panssarisatulalle
Bm              F#
   Selkärankani nikamalle
G                  D
   Pian suuntaamme ulapalle
A
   Kalaretki.

e|-------------|
B|-------------|
G|-------------|
D|-------------|
A|-------------|
E|-2-2--1-2--2-|

Bm              F#
   Lohivuoto ja lokinamme
Bm             F#
   Kuhavuonoja ohitamme
G                 D
   Matka saarelle ihanalle
A
Pienen hetken vie.

G                A            B
   Voiko tursaan tarjous olla tottakaan.

e|-----------------|
B|-----------------|
G|-----------------|
D|-------2---------|
A|-2-3-5---5---3---|
E|-----------------|

G              A             B
   Peto nuolee voitonvarmana hampaitaan.

e|-----------------|
B|-----------------|
G|-----------------|
D|-------2---------|
A|-2-3-5---5---3---|
E|-----------------|

G               A           D                G
   Korulauseita maistellaan, kunnes lokkikin oivaltaa
G                           A   Bbdim7
   Mitä hiekasta pilkottaa, luu-uu.

e|---------------------------------------------------|
B|---------------------------------------------------|
G|-------------------------1-----------------------1-|
D|-2-0-2-0-2-3-2-0-2-0-2-3---3-2-0-2-0-2-3-2-0-2-3---|
A|---------------------------------------------------|
E|---------------------------------------------------|

e|---------------------------------------------------|
B|---------------------------------------------------|
G|-----------1---------------------------1-----------|
D|-3-2-0-2-3---3-2-0-2-0-2-3-2-0-2-0-2-3---3-2-0-2-0-|
A|---------------------------------------------------|
E|---------------------------------------------------|

e|---------------------------------------------------|
B|---------------------------------------------------|
G|-------------1-----1-4---1-4-7---------------------|
D|-2-3-2-0-2-3---2-3-----3---------------------------|
A|-------------------------------0-5-0-5-0-5-8-5-0-5-|
E|---------------------------------------------------|

e|---------------------------------------------------|
B|---------------------------------------------------|
G|---------------------------------------------------|
D|--------7-----------------------7-----------7------|
A|-0-5-8---8-5-0-5-0-5-8-5-0-5-8---8-5-0-5-8-8-5-0-5-|
E|---------------------------------------------------|

e|----------------------------------------------------|
B|----------------------------------------------------|
G|----------------------------------------------------|
D|-------------------7-----------------------7-----10-|
A|-0-5-8-5-0-5-0-5-8---8-5-0-5-0-5-8-5-0-5-8---5-8----|
E|----------------------------------------------------|

e|----------------------------------------------------|
B|----------------------------------------------------|
G|----------------------------------------------------|
D|---7-10-13-0-13-0-13-0-13-0-13-12-0-12-0-12---------|
A|-8------------------------------------------12-0-12-|
E|----------------------------------------------------|

e|--------------------------------------------------|
B|--------------------------------------------------|
G|--------------------------------------------------|
D|-------------------------11-----------------------|
A|-0-12-13-12-0-12-0-12-13----13-12-0-12-0-12-13-12-|
E|--------------------------------------------------|

e|---------------------------------------------------|
B|---------------------------------------------------|
G|---------------------------------------------------|
D|---------11---------------11-----------------------|
A|-0-12-13----13-12-0-12-13----13-12-0-12-0-12-13-12-|
E|---------------------------------------------------|

e|--------------------------------------------------|
B|--------------------------------------------------|
G|--------------------------------------------------|
D|--------------11----------------------------------|
A|-0-12-0-12-13----13-12-0-12-0-12-13-12-0-12-13-12-|
E|--------------------------------------------------|

e|---------------------------------------------------|
B|---------------------------------------------------|
G|---------------------------------------------------|
D|---------11---------------11----12-0-12-0-12-13-12-|
A|-0-12-13----13-12-0-12-13----13--------------------|
E|---------------------------------------------------|

e|--------------------------------------------------|
B|--------------------------------------------------|
G|--------------11-------------------------------11-|
D|-0-12-0-12-13----13-12-0-12-0-12-13-12-0-12-13----|
A|--------------------------------------------------|
E|--------------------------------------------------|

e|--------------------------------------------------|
B|--------------------------------------------------|
G|---------------11---------------------------------|
D|-13-12-0-12-13----13-12-0-12-0-12-13-12-0-12-0-12-|
A|--------------------------------------------------|
E|--------------------------------------------------|

e|--------------------------------------------------------|
B|--------------------------------------------------------|
G|---------11-------------------------------11------------|
D|-0-12-13----13-12-0-12-0-12-13-12-0-12-13----13-12-0-12-|
A|--------------------------------------------------------|
E|--------------------------------------------------------|

E  A               G
   Tanner tömisee, suupala pakenee
   A                  G
   moolokki huutaa ja ölisee, ohi meni
   A              G              A
   kirkas merisää höyrystä sakenee

E  A               G
   Tanner tömisee, suupala pakenee
   A                  G
   moolokki huutaa ja ölisee, ohi meni
   A              G              A
   kirkas merisää höyrystä sakenee

E  A               G
   Tanner tömisee, suupala pakenee
   A                  F
   moolokki huutaa ja ölisee, ohi meni
   F              G              A
   kirkas merisää höyrystä sakenee

A  F#/Bb

Bm    A    F#           G
Meri, joka rantaa tuijottaa
     Bm             A           D     B/Eb
Näki hyisen mustan hahmon öisin saalispuuhissaan.

Em   B    Em             B            
Meri, sen aallot peittää töiden jäljet
Em              B            C#
Hiekkaa heittää päälle keitosten.

e|-----------------------------------------------------------|
B|-----------------------------------------------------------|
G|-----------------------------------------------------------|
D|-----------------------4-5--4------------------------------|
A|-4--5-7--5-4---4--5-7---------7--5--4-5-4-5-4--4-5-4-5-4--~|
E|-----------------------------------------------------------|



   E Em F# F#/Bb G A Bbdim7 B Bm B/Eb C# D
e|-0--7-2--------3-0--------2-2-------4--2-|
B|-0--8-2----2---0-2---2----4-3---7---6--3-|
G|-1--9-3----3---0-2---0----4-4---8---6--2-|
D|-2--9-4----4---0-2---2----4-4---9---6--0-|
A|-2--7-4----1---2-0---1----2-2---6---4----|
E|-0----2--------3-------------------------|

Добавлено: 22.10.2015
Другие материалы по этой песне:
  • Аккорды и текст

Страница создана 22.10.2015
http://primanota.ru/woyh/kaskelotti-chords.htm
Привет, Гость.
Предлагаем пройти революционный курс по гитаре.
Подарок от PrimaNota.Ru, забирай!