PrimaNota.ru - самый крупный в мире бесплатный архив песенных текстов, аккордов, табулатур и нот


Wöyh - Kamppailu Merellä - таба, видео

Регистрация Запомнить меня
Войти через:  Facebook Google Twitter Vk Yandex Mail.ru

Wöyh - Kamppailu Merellä - таба, видео

Печатать
Просмотров: 53
-------------------------------------------------------------------------------
                           Wöyh! - Kamppailu merellä
-------------------------------------------------------------------------------

Tabbed by: myskimasa

Tuning: drop D

If you've got better ideas for the interlude 2, please let me know!

INTRO
e|-------------------------------------------------|
B|-------------------------------------------------|
G|-------------------------------------------------|
D|-----------------5-----8/9--5--6-----------------|
A|-----3-----7--------7-------------8--5--6--3--0--|
D|--2-----6-----9----------------------------------|

e|-------------------------------------------------|
B|-------------------------------------------------|
G|-------------------------------------------------|
D|-----------------5-----8/9--5--6-----------------|
A|-----3-----7--------7-------------8--5--6--3--0--|
D|--2-----6-----9----------------------------------|

VERSE 1
e|---------------------------------------------------------------------------|
B|---------------------------------------------------------------------------|
G|---------------------------------------------------------------------------|
D|--------3\-2/-3--------3--3----3-----1----1--------3\-2/-3--------3--------|
A|--------5\-4/-5--------5--5----5-----1----1--------5\-4/-5--------5--------|
D|--0--0-----------0--0-----6----6--0--1----1-----0-----------0--0-----------|

e|---------------------------------------------------------------------------|
B|---------------------------------------------------------------------------|
G|---------------------------------------------------------------------------|
D|--------3\-2/-3--------3--3----3-----1----1--------3\-2/-3--------3--------|
A|--------5\-4/-5--------5--5----5-----1----1--------5\-4/-5--------5--------|
D|--0--0-----------0--0-----6----6--0--1----1-----0-----------0--0-----------|

PRE-CHORUS
[gtr1]
e|--------------------------------------------------|
B|--------------------------------------------------|
G|--------------------------------------------------|
D|--4--4--4--4--4--4--4--4--4--4--4--4----4----4----|
A|--2--2--2--2--2--2--2--2--2--2--2--2----0----0----|
D|--------------------------------------------------|

e|--------------------------------------------------|
B|--------------------------------------------------|
G|--------------------------------------------------|
D|--4--4--4--4--4--4--4--4--4--4--4--4----4----4----|
A|--2--2--2--2--2--2--2--2--2--2--2--2----0----0----|
D|--------------------------------------------------|

e|--------------------------------------------------|
B|--------------------------------------------------|
G|--------------------------------------------------|
D|--4--4--4--4--4--4--4--4--4--4--4--4--------------|
A|--2--2--2--2--2--2--2--2--2--2--2--2--------------|
D|--------------------------------------------------|

[gtr2]
e|-------------------5----5/7----5------------------|
B|-----------5--7-----------------------------------|
G|--4--6--7-----------------------------------------|
D|--------------------------------------------------|
A|--------------------------------------------------|
D|--------------------------------------------------|

e|-------------------5----5/7----5------------------|
B|-----------5--7-----------------------------------|
G|--4--6--7-----------------------------------------|
D|--------------------------------------------------|
A|--------------------------------------------------|
D|--------------------------------------------------|

e|-------------------5----5/7----5------------------|
B|-----------5--7-----------------------------------|
G|--4--6--7-----------------------------------------|
D|--------------------------------------------------|
A|--------------------------------------------------|
D|--------------------------------------------------|

VERSE 2
e|---------------------------------------------------------------------------|
B|---------------------------------------------------------------------------|
G|---------------------------------------------------------------------------|
D|--------3\-2/-3--------3--3----3-----1----1--------3\-2/-3--------3--------|
A|--------5\-4/-5--------5--5----5-----1----1--------5\-4/-5--------5--------|
D|--0--0-----------0--0-----6----6--0--1----1-----0-----------0--0-----------|

e|---------------------------------------------------------------------------|
B|---------------------------------------------------------------------------|
G|---------------------------------------------------------------------------|
D|--------3\-2/-3--------3--3----3-----1----1--------3\-2/-3--------3--------|
A|--------5\-4/-5--------5--5----5-----1----1--------5\-4/-5--------5--------|
D|--0--0-----------0--0-----6----6--0--1----1-----0-----------0--0-----------|

INTERLUDE
e|--------------------------------------------------|
B|--------------------------------------------------|
G|--------------------------------------------------|
D|---------------------------5-----7/8--5--6--------|
A|--------3--3---------7--------7-------------8--5--|
D|-2-2-2--------6-6-6-----9-------------------------|

e|--------------------------------------------------|
B|--------------------------------------------------|
G|--------------------------------------------------|
D|---------------------------5-----7/8--5--6--------|
A|--------3--3---------7--------7-------------8--5--|
D|-2-2-2--------6-6-6-----9-------------------------|

e|-----------------------------------------------|
B|-----------------------------------------------|
G|-----------------------------------------------|
D|--5-----5-----5-----5-----5-----5-----5--4-----|
A|-----------------------------------------------|
D|-----2-----2-----2-----2-----2-----2-----------|

e|-----------------------------------------------|
B|-----------------------------------------------|
G|-----------------------------------------------|
D|--5-----5-----5-----5-----5--4--------5--4-----|
A|-----------------------------------------------|
D|-----2-----2-----2-----2-----------------------|

e|-----------------------------------------------|
B|-----------------------------------------------|
G|-----------------------------------------------|
D|--5-----5-----5-----5-----5-----5-----5--7-----|
A|-----------------------------------------------|
D|-----2-----2-----2-----2-----2-----2-----------|

PRE-CHORUS
e|--------------------------------------------------|
B|--------------------------------------------------|
G|--------------------------------------------------|
D|--4--4--4--4--4--4--4--4--4--4--4--4----4----4----|
A|--2--2--2--2--2--2--2--2--2--2--2--2----0----0----|
D|--------------------------------------------------|

e|--------------------------------------------------|
B|--------------------------------------------------|
G|--------------------------------------------------|
D|--4--4--4--4--4--4--4--4--4--4--4--4----4----4----|
A|--2--2--2--2--2--2--2--2--2--2--2--2----0----0----|
D|--------------------------------------------------|

e|--------------------------------------------------|
B|--------------------------------------------------|
G|--------------------------------------------------|
D|--4--4--4--4--4--4--4--4--4--4--4--4----4----4----|
A|--2--2--2--2--2--2--2--2--2--2--2--2----0----0----|
D|--------------------------------------------------|

e|--------------------------|
B|--------------------------|
G|--------------------------|
D|--4--4--4--4----4----4----|
A|--2--2--2--2----0----0----|
D|--------------------------|

CHORUS
e|--------------------------------------------------|
B|--------------------------------------------------|
G|--------------------------------------------------|
D|--9--9--9--9--9--9--9--9--9--9--9--9--9--9--9--9--|
A|--7--7--7--7--7--7--7--7--5--5--5--5--5--5--5--5--|
D|--------------------------------------------------|

e|--------------------------------------------------|
B|--------------------------------------------------|
G|--------------------------------------------------|
D|--2--2--2--2--2--2--2--2--2--2--2--2--2--2--2--2--|
A|--0--0--0--0--0--0--0--0--0--0--0--0--0--0--0--0--|
D|--------------------------------------------------|

e|--------------------------------------------------|
B|--------------------------------------------------|
G|--------------------------------------------------|
D|--9--9--9--9--9--9--9--9--9--9--9--9--9--9--9--9--|
A|--7--7--7--7--7--7--7--7--5--5--5--5--5--5--5--5--|
D|--------------------------------------------------|

e|--------------------------------------------------|
B|--------------------------------------------------|
G|--------------------------------------------------|
D|--2--2--2--2--2--2--2--2--5--5--5--5--5--5--5--5--|
A|--0--0--0--0--0--0--0--0--3--3--3--3--3--3--3--3--|
D|--------------------------------------------------|

e|--------------------------------------------------|
B|--------------------------------------------------|
G|--------------------------------------------------|
D|--9--9--9--9--9--9--9--9--9--9--9--9--9--9--9--9--|
A|--7--7--7--7--7--7--7--7--5--5--5--5--5--5--5--5--|
D|--------------------------------------------------|

e|--------------------------------------------------|
B|--------------------------------------------------|
G|--------------------------------------------------|
D|--2--2--2--2--2--2--2--2--4--4--4--4--4--4--4--4--|
A|--0--0--0--0--0--0--0--0--1--1--1--1--1--1--1--1--|
D|--------------------------------------------------|

PRE-CHORUS
[gtr1]
e|--------------------------------------------------|
B|--------------------------------------------------|
G|--------------------------------------------------|
D|--4--4--4--4--4--4--4--4--4--4--4--4----4----4----|
A|--2--2--2--2--2--2--2--2--2--2--2--2----0----0----|
D|--------------------------------------------------|

e|--------------------------------------------------|
B|--------------------------------------------------|
G|--------------------------------------------------|
D|--4--4--4--4--4--4--4--4--4--4--4--4----4----4----|
A|--2--2--2--2--2--2--2--2--2--2--2--2----0----0----|
D|--------------------------------------------------|

e|--------------------------------------------------|
B|--------------------------------------------------|
G|--------------------------------------------------|
D|--4--4--4--4--4--4--4--4--4--4--4--4----4----4----|
A|--2--2--2--2--2--2--2--2--2--2--2--2----0----0----|
D|--------------------------------------------------|

e|--------------------------|
B|--------------------------|
G|--------------------------|
D|--4--4--4--4----4----4----|
A|--2--2--2--2----0----0----|
D|--------------------------|

[gtr2]
e|-------------------5----5/7----5------------------|
B|-----------5--7-----------------------------------|
G|--4--6--7-----------------------------------------|
D|--------------------------------------------------|
A|--------------------------------------------------|
D|--------------------------------------------------|

e|-------------------5----5/7----5------------------|
B|-----------5--7-----------------------------------|
G|--4--6--7-----------------------------------------|
D|--------------------------------------------------|
A|--------------------------------------------------|
D|--------------------------------------------------|

e|-------------------5----5/7----5------------------|
B|-----------5--7-----------------------------------|
G|--4--6--7-----------------------------------------|
D|--------------------------------------------------|
A|--------------------------------------------------|
D|--------------------------------------------------|

e|--------------------------|
B|-----------5--7-----------|
G|--4--6--7----------4------|
D|--------------------------|
A|--------------------------|
D|--------------------------|

VERSE 3
e|---------------------------------------------------------------------------|
B|---------------------------------------------------------------------------|
G|---------------------------------------------------------------------------|
D|--------3\-2/-3--------3--3----3-----1----1--------3\-2/-3--------3--------|
A|--------5\-4/-5--------5--5----5-----1----1--------5\-4/-5--------5--------|
D|--0--0-----------0--0-----6----6--0--1----1-----0-----------0--0-----------|

e|---------------------------------------------|
B|---------------------------------------------|
G|---------------------------------------------|
D|--------3\-2/-3--------3--3----3-----1----1--|
A|--------5\-4/-5--------5--5----5-----1----1--|
D|--0--0-----------0--0-----6----6--0--1----1--|

INTERLUDE 2
e|-----------------------------------------------------------------------------------------------------|
B|-----------------------------------------------------------------------------------------------------|
G|-2p1-2--2--2p1---2p1-------2p1-2--2--2p1---2p1-----2p1-2--2--2p1---2p1-------2p1-2--2--2p1---2p1-----|
D|---------------4-----2p0-----------------4-----2p0---------------4-----2p0-----------------4-----2p0-|
A|-----------------------------------------------------------------------------------------------------|
D|-----------------------------------------------------------------------------------------------------|

e|-----------------------------------------------------------------------------------------------------|
B|-----------------------------------------------------------------------------------------------------|
G|-2p1-2--2--2p1---2p1-------2p1-2--2--2p1---2p1-----2p1-2--2--2p1---2p1-------2p1-2--2--2p1---2p1-----|
D|---------------4-----2p0-----------------4-----2p0---------------4-----2p0-----------------4-----2p0-|
A|-----------------------------------------------------------------------------------------------------|
D|-----------------------------------------------------------------------------------------------------|

e|-----------------------------------------------------------------------------------------------------|
B|-----------------------------------------------------------------------------------------------------|
G|-2p1-2--2--2p1---2p1-------2p1-2--2--2p1---2p1-----2p1-2--2--2p1---2p1-------2p1-2--2--2p1---2p1-----|
D|---------------4-----2p0-----------------4-----2p0---------------4-----2p0-----------------4-----2p0-|
A|-----------------------------------------------------------------------------------------------------|
D|-----------------------------------------------------------------------------------------------------|

e|-----------------------------------------------------------------------------------------------------|
B|-----------------------------------------------------------------------------------------------------|
G|-2p1-2--2--2p1---2p1-------2p1-2--2--2p1---2p1-----2p1-2--2--2p1---2p1-------2p1-2--2--2p1---2p1-----|
D|---------------4-----2p0-----------------4-----2p0---------------4-----2p0-----------------4-----2p0-|
A|-----------------------------------------------------------------------------------------------------|
D|-----------------------------------------------------------------------------------------------------|

e|-----------------------------------------------|
B|-----------------------------------------------|
G|-----------------------------------------------|
D|--5-----5-----5-----5-----5-----5-----5--4-----|
A|-----------------------------------------------|
D|-----2-----2-----2-----2-----2-----2-----------|

e|-----------------------------------------------|
B|-----------------------------------------------|
G|-----------------------------------------------|
D|--5-----5-----5-----5-----5--4--------5--4-----|
A|-----------------------------------------------|
D|-----2-----2-----2-----2-----------------------|

e|-----------------------------------------------|
B|-----------------------------------------------|
G|-----------------------------------------------|
D|--5-----5-----5-----5-----5-----5-----5--7-----|
A|-----------------------------------------------|
D|-----2-----2-----2-----2-----2-----2-----------|

PRE-CHORUS
[gtr1]
e|--------------------------------------------------|
B|--------------------------------------------------|
G|--------------------------------------------------|
D|--4--4--4--4--4--4--4--4--4--4--4--4----4----4----|
A|--2--2--2--2--2--2--2--2--2--2--2--2----0----0----|
D|--------------------------------------------------|

e|--------------------------------------------------|
B|--------------------------------------------------|
G|--------------------------------------------------|
D|--4--4--4--4--4--4--4--4--4--4--4--4----4----4----|
A|--2--2--2--2--2--2--2--2--2--2--2--2----0----0----|
D|--------------------------------------------------|

e|--------------------------------------------------|
B|--------------------------------------------------|
G|--------------------------------------------------|
D|--4--4--4--4--4--4--4--4--4--4--4--4----4----4----|
A|--2--2--2--2--2--2--2--2--2--2--2--2----0----0----|
D|--------------------------------------------------|

e|--------------------------|
B|--------------------------|
G|--------------------------|
D|--4--4--4--4----4----4----|
A|--2--2--2--2----0----0----|
D|--------------------------|

[gtr2]
e|------------------------------------------------------|
B|--------------------0--12--0--15--0--14--0--10--------|
G|-------------9--11------------------------------12----|
D|--9--11--12-------------------------------------------|
A|------------------------------------------------------|
D|------------------------------------------------------|

e|------------------------------------------------------|
B|--------------------0--12--0--15--0--14--0--10--------|
G|-------------9--11------------------------------12----|
D|--9--11--12-------------------------------------------|
A|------------------------------------------------------|
D|------------------------------------------------------|

e|------------------------------------------------------|
B|--------------------0--12--0--15--0--14--0--10--------|
G|-------------9--11------------------------------12----|
D|--9--11--12-------------------------------------------|
A|------------------------------------------------------|
D|------------------------------------------------------|

e|--------------------------------|
B|--------------------0--12--0----|
G|-------------9--11--------------|
D|--9--11--12---------------------|
A|--------------------------------|
D|--------------------------------|


CHORUS
e|--------------------------------------------------|
B|--------------------------------------------------|
G|--------------------------------------------------|
D|--9--9--9--9--9--9--9--9--9--9--9--9--9--9--9--9--|
A|--7--7--7--7--7--7--7--7--5--5--5--5--5--5--5--5--|
D|--------------------------------------------------|

e|--------------------------------------------------|
B|--------------------------------------------------|
G|--------------------------------------------------|
D|--2--2--2--2--2--2--2--2--2--2--2--2--2--2--2--2--|
A|--0--0--0--0--0--0--0--0--0--0--0--0--0--0--0--0--|
D|--------------------------------------------------|

e|--------------------------------------------------|
B|--------------------------------------------------|
G|--------------------------------------------------|
D|--9--9--9--9--9--9--9--9--9--9--9--9--9--9--9--9--|
A|--7--7--7--7--7--7--7--7--5--5--5--5--5--5--5--5--|
D|--------------------------------------------------|

e|--------------------------------------------------|
B|--------------------------------------------------|
G|--------------------------------------------------|
D|--2--2--2--2--2--2--2--2--5--5--5--5--5--5--5--5--|
A|--0--0--0--0--0--0--0--0--3--3--3--3--3--3--3--3--|
D|--------------------------------------------------|

e|--------------------------------------------------|
B|--------------------------------------------------|
G|--------------------------------------------------|
D|--9--9--9--9--9--9--9--9--9--9--9--9--9--9--9--9--|
A|--7--7--7--7--7--7--7--7--5--5--5--5--5--5--5--5--|
D|--------------------------------------------------|

e|--------------------------------------------------|
B|--------------------------------------------------|
G|--------------------------------------------------|
D|--2--2--2--2--2--2--2--2--4--4--4--4--4--4--4--4--|
A|--0--0--0--0--0--0--0--0--1--1--1--1--1--1--1--1--|
D|--------------------------------------------------|

PRE-CHORUS
e|--------------------------------------------------|
B|--------------------------------------------------|
G|--------------------------------------------------|
D|--4--4--4--4--4--4--4--4--4--4--4--4----4----4----|
A|--2--2--2--2--2--2--2--2--2--2--2--2----0----0----|
D|--------------------------------------------------|

e|--------------------------------------------------|
B|--------------------------------------------------|
G|--------------------------------------------------|
D|--4--4--4--4--4--4--4--4--4--4--4--4----4----4----|
A|--2--2--2--2--2--2--2--2--2--2--2--2----0----0----|
D|--------------------------------------------------|

e|--------------------------------------------------|
B|--------------------------------------------------|
G|--------------------------------------------------|
D|--4--4--4--4--4--4--4--4--4--4--4--4----4----4----|
A|--2--2--2--2--2--2--2--2--2--2--2--2----0----0----|
D|--------------------------------------------------|

e|--------------------------|
B|--------------------------|
G|--------------------------|
D|--4--4--4--4--------------|
A|--2--2--2--2--------------|
D|--------------------------|

CHORUS
e|--------------------------------------------------|
B|--------------------------------------------------|
G|--------------------------------------------------|
D|--9--9--9--9--9--9--9--9--9--9--9--9--9--9--9--9--|
A|--7--7--7--7--7--7--7--7--5--5--5--5--5--5--5--5--|
D|--------------------------------------------------|

e|--------------------------------------------------|
B|--------------------------------------------------|
G|--------------------------------------------------|
D|--2--2--2--2--2--2--2--2--2--2--2--2--2--2--2--2--|
A|--0--0--0--0--0--0--0--0--0--0--0--0--0--0--0--0--|
D|--------------------------------------------------|

e|--------------------------------------------------|
B|--------------------------------------------------|
G|--------------------------------------------------|
D|--9--9--9--9--9--9--9--9--9--9--9--9--9--9--9--9--|
A|--7--7--7--7--7--7--7--7--5--5--5--5--5--5--5--5--|
D|--------------------------------------------------|

e|--------------------------------------------------|
B|--------------------------------------------------|
G|--------------------------------------------------|
D|--2--2--2--2--2--2--2--2--5--5--5--5--5--5--5--5--|
A|--0--0--0--0--0--0--0--0--3--3--3--3--3--3--3--3--|
D|--------------------------------------------------|

e|--------------------------------------------------|
B|--------------------------------------------------|
G|--------------------------------------------------|
D|--9--9--9--9--9--9--9--9--9--9--9--9--9--9--9--9--|
A|--7--7--7--7--7--7--7--7--5--5--5--5--5--5--5--5--|
D|--------------------------------------------------|

e|--------------------------------------------------|
B|--------------------------------------------------|
G|--------------------------------------------------|
D|--2--2--2--2--2--2--2--2--4--4--4--4--4--4--4--4--|
A|--0--0--0--0--0--0--0--0--1--1--1--1--1--1--1--1--|
D|--------------------------------------------------|

PRE-CHORUS
e|--------------------------------------------------|
B|--------------------------------------------------|
G|--------------------------------------------------|
D|--4--4--4--4--4--4--4--4--4--4--4--4----4----4----|
A|--2--2--2--2--2--2--2--2--2--2--2--2----0----0----|
D|--------------------------------------------------|

e|--------------------------------------------------|
B|--------------------------------------------------|
G|--------------------------------------------------|
D|--4--4--4--4--4--4--4--4--4--4--4--4----4----4----|
A|--2--2--2--2--2--2--2--2--2--2--2--2----0----0----|
D|--------------------------------------------------|

e|--------------------------------------------------|
B|--------------------------------------------------|
G|--------------------------------------------------|
D|--4--4--4--4--4--4--4--4--4--4--4--4----4----4----|
A|--2--2--2--2--2--2--2--2--2--2--2--2----0----0----|
D|--------------------------------------------------|

e|--------------------------|
B|--------------------------|
G|--------------------------|
D|--4--4--4--4--------------|
A|--2--2--2--2--------------|
D|--------------------------|

OUTRO
e|-------------------------------------------------|
B|-------------------------------------------------|
G|-------------------------------------------------|
D|-----------------5-----8/9--5--6-----------------|
A|-----3-----7--------7-------------8--5--6--3--0--|
D|--2-----6-----9----------------------------------|

e|-------------------------------------------------|
B|-------------------------------------------------|
G|-------------------------------------------------|
D|-----------------5-----8/9--5--6-----------------|
A|-----3-----7--------7-------------8--5--6--3--0--|
D|--2-----6-----9----------------------------------|

e|-------------------------------------------------|
B|-------------------------------------------------|
G|-------------------------------------------------|
D|-----------------5-----8/9--5--6-----------------|
A|-----3-----7--------7-------------8--5--6--3--0--|
D|--2-----6-----9----------------------------------|

e|-------------------------------------------------|
B|-------------------------------------------------|
G|-------------------------------------------------|
D|-----------------5-----8/9--5--6-----------------|
A|-----3-----7--------7-------------8--5--6--3--0--|
D|--2-----6-----9----------------------------------|



************************************

| /   slide up
| \   slide down
| h   hammer-on
| p   pull-off
| ~   vibrato
| +   harmonic
| x   Mute note
| b   Bend
| pb  Pre-bend
| br  Bend release
| pbr Pre-bend release
| brb Bend release bend

************************************
Добавлено: 12.03.2016
Другие материалы по этой песне:
  • Аккорды и текст

Страница создана 12.03.2016
http://primanota.ru/woyh/kamppailu-merella-chords.htm
Привет, Гость.
Предлагаем пройти революционный курс по гитаре.
Подарок от PrimaNota.Ru, забирай!