PrimaNota.ru - самый крупный в мире бесплатный архив песенных текстов, аккордов, табулатур и нот


Wöyh - Kalasatamaan - таба, видео

Регистрация Запомнить меня
Войти через:  Facebook Google Twitter Vk Yandex Mail.ru

Wöyh - Kalasatamaan - таба, видео

Печатать
Просмотров: 97
Уроки эстрадного вокала в Санкт-Петербурге
-------------------------------------------------------------------------------
                           Wöyh! - Kalasatamaan
-------------------------------------------------------------------------------

Tabbed by: myskimasa

Tuning: drop D

INTRO
[gtr1]
e|---------------------------------|
B|---------------------------------|
G|-6-6-6-6-6-6-6-6-6-6-6-6-6-6-6-6-|
D|-6-6-6-6-6-6-6-6-6-6-6-6-6-6-6-6-|
A|-4-4-4-4-4-4-4-4-4-4-4-4-4-4-4-4-|
D|---------------------------------|

e|-------------------------------------------------------------------|
B|-------------------------------------------------------------------|
G|-7-7-7-7-----3---5---5---5---5---5-7-7-5-5-3-----------------------|
D|-7-7-7-7-----3---5---5---5---5---5-7-7-5-5-3-----5---7-7-7-7-7-7-7-|
A|-5-5-5-5-----1---3---3---3---3---3-5-5-3-3-1-----5---7-7-7-7-7-7-7-|
D|-------------------------------------------------5---7-7-7-7-7-7-7-|

e|---------------------------------|
B|---------------------------------|
G|-6-6-6-6-6-6-6-6-6-6-6-6-6-6-6-6-|
D|-6-6-6-6-6-6-6-6-6-6-6-6-6-6-6-6-|
A|-4-4-4-4-4-4-4-4-4-4-4-4-4-4-4-4-|
D|---------------------------------|

e|-------------------------------------------------------------------|
B|-------------------------------------------------------------------|
G|-7-7-7-7-----3---5---5---5---5---5-7-7-5-5-3-----------------------|
D|-7-7-7-7-----3---5---5---5---5---5-7-7-5-5-3-----5---7-7-7-7-7-7-7-|
A|-5-5-5-5-----1---3---3---3---3---3-5-5-3-3-1-----5---7-7-7-7-7-7-7-|
D|-------------------------------------------------5---7-7-7-7-7-7-7-|

e|---------------------------------|
B|---------------------------------|
G|-6-6-6-6-6-6-6-6-6-6-6-6-6-6-6-6-|
D|-6-6-6-6-6-6-6-6-6-6-6-6-6-6-6-6-|
A|-4-4-4-4-4-4-4-4-4-4-4-4-4-4-4-4-|
D|---------------------------------|

[gtr2]
e|---------------------------------|
B|-6---------------8---------------|
G|---------------------------------|
D|---------------------------------|
A|---------------------------------|
D|---------------------------------|


e|------------------------------------------------5------5-----|
B|-6-5h6p5---------5------5------5-6-5h6p5----------8b---------|
G|---------7-7---7-----7b-----7b-----------7-7-----------------|
D|-------------------------------------------------------------|
A|-------------------------------------------------------------|
D|-------------------------------------------------------------|

e|---------------------------------|
B|-6-6-----8-8-----9-9-----6-6-----|
G|---------------------------------|
D|---------------------------------|
A|---------------------------------|
D|---------------------------------|

[gtr3] joins in for the second round
e|---------------------------------|
B|---------------------------------|
G|-6-6-----8-8----10-10----6-6-----|
D|---------------------------------|
A|---------------------------------|
D|---------------------------------|

e|-------------------------------------------------------------|
B|-----------------------------------------------5------5------|
G|-6-5h6p5---------5------5------5-6-5h6p5---------7b----------|
D|---------8-8---8-----8b-----8b-----------8-8-----------------|
A|-------------------------------------------------------------|
D|-------------------------------------------------------------|

e|---------------------------------|
B|---------------------------------|
G|-6-6-----8-8----10-10------------|
D|---------------------------------|
A|---------------------------------|
D|---------------------------------|


VERSE 1
e|-------------------------------------------------------------|
B|-------------------------------------------------------------|
G|-5-----5---5-----5-----5---5---------------6--------------10-|
D|-5-----5---5-----5-----5---5-----------8-------------10------|
A|-3-----3---3-----3-----3---3-----3/6-----------6/8-----------|
D|-------------------------------------------------------------|

e|-------------------------------------------------------------|
B|-------------------------------------------------------------|
G|-5-----5---5-----5-----5---5---------------6--------------10-|
D|-5-----5---5-----5-----5---5-----------8-------------10------|
A|-3-----3---3-----3-----3---3-----3/6-----------6/8-----------|
D|-------------------------------------------------------------|

e|-------------------------------------------------------------|
B|-------------------------------------------------------------|
G|-5-----5---5-----5-----5---5---------------6--------------10-|
D|-5-----5---5-----5-----5---5-----------8-------------10------|
A|-3-----3---3-----3-----3---3-----3/6-----------6/8-----------|
D|-------------------------------------------------------------|

e|-------------------------------------------------------------|
B|-------------------------------------------------------------|
G|-5-----5---5-----5-----5---5---------------6--------------10-|
D|-5-----5---5-----5-----5---5-----------8-------------10------|
A|-3-----3---3-----3-----3---3-----3/6-----------6/8-----------|
D|-------------------------------------------------------------|

e|-----------------------------|
B|-----------------------------|
G|-----------------------------|
D|-5-5-5-5-5-5-5-5-------------|
A|-5-5-5-5-5-5-5-5-------------|
D|-5-5-5-5-5-5-5-5-------------|

CHORUS
e|-------------------------------------------------------------------|
B|-------------------------------------------------------------------|
G|-7-7-7-7-----3---5---5---5---5---5-7-7-5-5-3-----------------------|
D|-7-7-7-7-----3---5---5---5---5---5-7-7-5-5-3-----5---7-7-7-7-7-7-7-|
A|-5-5-5-5-----1---3---3---3---3---3-5-5-3-3-1-----5---7-7-7-7-7-7-7-|
D|-------------------------------------------------5---7-7-7-7-7-7-7-|

e|---------------------------------|
B|---------------------------------|
G|-6-6-6-6-6-6-6-6-6-6-6-6-6-6-6-6-|
D|-6-6-6-6-6-6-6-6-6-6-6-6-6-6-6-6-|
A|-4-4-4-4-4-4-4-4-4-4-4-4-4-4-4-4-|
D|---------------------------------|

e|-------------------------------------------------------------------|
B|-------------------------------------------------------------------|
G|-7-7-7-7-----3---5---5---5---5---5-7-7-5-5-3-----------------------|
D|-7-7-7-7-----3---5---5---5---5---5-7-7-5-5-3-----5---7-7-7-7-7-7-7-|
A|-5-5-5-5-----1---3---3---3---3---3-5-5-3-3-1-----5---7-7-7-7-7-7-7-|
D|-------------------------------------------------5---7-7-7-7-7-7-7-|

e|---------------------------------|
B|---------------------------------|
G|-6-6-6-6-6-6-6-6-6-6-6-6-6-6-6-6-|
D|-6-6-6-6-6-6-6-6-6-6-6-6-6-6-6-6-|
A|-4-4-4-4-4-4-4-4-4-4-4-4-4-4-4-4-|
D|---------------------------------|

VERSE 2
e|-------------------------------------------------------------|
B|-------------------------------------------------------------|
G|-5-----5---5-----5-----5---5---------------6--------------10-|
D|-5-----5---5-----5-----5---5-----------8-------------10------|
A|-3-----3---3-----3-----3---3-----3/6-----------6/8-----------|
D|-------------------------------------------------------------|

e|-------------------------------------------------------------|
B|-------------------------------------------------------------|
G|-5-----5---5-----5-----5---5---------------6--------------10-|
D|-5-----5---5-----5-----5---5-----------8-------------10------|
A|-3-----3---3-----3-----3---3-----3/6-----------6/8-----------|
D|-------------------------------------------------------------|

e|-------------------------------------------------------------|
B|-------------------------------------------------------------|
G|-5-----5---5-----5-----5---5---------------6--------------10-|
D|-5-----5---5-----5-----5---5-----------8-------------10------|
A|-3-----3---3-----3-----3---3-----3/6-----------6/8-----------|
D|-------------------------------------------------------------|

e|-------------------------------------------------------------|
B|-------------------------------------------------------------|
G|-5-----5---5-----5-----5---5---------------6--------------10-|
D|-5-----5---5-----5-----5---5-----------8-------------10------|
A|-3-----3---3-----3-----3---3-----3/6-----------6/8-----------|
D|-------------------------------------------------------------|

e|-----------------------------|
B|-----------------------------|
G|-----------------------------|
D|-5-5-5-5-5-5-5-5-8-8-8-8-8-8-|
A|-5-5-5-5-5-5-5-5-8-8-8-8-8-8-|
D|-5-5-5-5-5-5-5-5-8-8-8-8-8-8-|

CHORUS
e|-------------------------------------------------------------------|
B|-------------------------------------------------------------------|
G|-7-7-7-7-----3---5---5---5---5---5-7-7-5-5-3-----------------------|
D|-7-7-7-7-----3---5---5---5---5---5-7-7-5-5-3-----5---7-7-7-7-7-7-7-|
A|-5-5-5-5-----1---3---3---3---3---3-5-5-3-3-1-----5---7-7-7-7-7-7-7-|
D|-------------------------------------------------5---7-7-7-7-7-7-7-|

e|---------------------------------|
B|---------------------------------|
G|-6-6-6-6-6-6-6-6-6-6-6-6-6-6-6-6-|
D|-6-6-6-6-6-6-6-6-6-6-6-6-6-6-6-6-|
A|-4-4-4-4-4-4-4-4-4-4-4-4-4-4-4-4-|
D|---------------------------------|

e|-------------------------------------------------------------------|
B|-------------------------------------------------------------------|
G|-7-7-7-7-----3---5---5---5---5---5-7-7-5-5-3-----------------------|
D|-7-7-7-7-----3---5---5---5---5---5-7-7-5-5-3-----5---7-7-7-7-7-7-7-|
A|-5-5-5-5-----1---3---3---3---3---3-5-5-3-3-1-----5---7-7-7-7-7-7-7-|
D|-------------------------------------------------5---7-7-7-7-7-7-7-|

e|---------------------------------|
B|---------------------------------|
G|-6-6-6-6-6-6-6-6-6-6-6-6-6-6-6-6-|
D|-6-6-6-6-6-6-6-6-6-6-6-6-6-6-6-6-|
A|-4-4-4-4-4-4-4-4-4-4-4-4-4-4-4-4-|
D|---------------------------------|

INTERLUDE 1 First two rounds without guitar
[gtr1]
e|-----------------------------------------------------------------|
B|-----------------------------------------------------------------|
G|-----------------------------------------------------------------|
D|-7-7-7-7-7-7-7-7-7-7-7-7-7-7-7-7---------------------------------|
A|-5-5-5-5-5-5-5-5-5-5-5-5-5-5-5-5-6-6-6-6-6-6-6-6-6-6-6-6-6-6-6-6-|
D|---------------------------------6-6-6-6-6-6-6-6-6-6-6-6-6-6-6-6-|

e|-----------------------------------------------------------------|
B|-----------------------------------------------------------------|
G|-----------------------------------------------------------------|
D|-7-7-7-7-7-7-7-7-7-7-7-7-7-7-7-7---------------------------------|
A|-5-5-5-5-5-5-5-5-5-5-5-5-5-5-5-5-6-6-6-6-6-6-6-6-6-6-6-6-6-6-6-6-|
D|---------------------------------6-6-6-6-6-6-6-6-6-6-6-6-6-6-6-6-|

e|-----------------------------------------------------------------|
B|-----------------------------------------------------------------|
G|-----------------------------------------------------------------|
D|-7-7-7-7-7-7-7-7-7-7-7-7-7-7-7-7---------------------------------|
A|-5-5-5-5-5-5-5-5-5-5-5-5-5-5-5-5-6-6-6-6-6-6-6-6-6-6-6-6-6-6-6-6-|
D|---------------------------------6-6-6-6-6-6-6-6-6-6-6-6-6-6-6-6-|

e|-----------------------------------------------------------------|
B|-----------------------------------------------------------------|
G|-----------------------------------------------------------------|
D|-7-7-7-7-7-7-7-7-7-7-7-7-7-7-7-7---------------------------------|
A|-5-5-5-5-5-5-5-5-5-5-5-5-5-5-5-5-6-6-6-6-6-6-6-6-6-6-6-6-6-6-6-6-|
D|---------------------------------6-6-6-6-6-6-6-6-6-6-6-6-6-6-6-6-|

e|-------------------------|
B|-------------------------|
G|-------------------------|
D|-------------------------|
A|-6-6-6-6-6-6-6-6-6-------|
D|-6-6-6-6-6-6-6-6-6-------|

[gtr2]
e|-----------------------------------------------------------------|
B|-----------------------------------------------------------------|
G|---------7-------9-------10----------------------8---------------|
D|-----------------------------------------------------------------|
A|-----------------------------------------------------------------|
D|-----------------------------------------------------------------|

e|-----------------------------------------------------------------|
B|-----------------------------------------------------------------|
G|-7-------7-------9-------10----------------------8---------------|
D|-----------------------------------------------------------------|
A|-----------------------------------------------------------------|
D|-----------------------------------------------------------------|

e|-----------------------------------------------------------------|
B|-----------------------------------------------------------------|
G|-7-------7-------9-------10----------------------8---------------|
D|-----------------------------------------------------------------|
A|-----------------------------------------------------------------|
D|-----------------------------------------------------------------|

e|-----------------------------------------------------------------|
B|-----------------------------------------------------------------|
G|-7-------7-------9-------10---------------------12---------------|
D|-----------------------------------------------------------------|
A|-----------------------------------------------------------------|
D|-----------------------------------------------------------------|

e|-------------------------|
B|-------------------------|
G|-13----------------------|
D|-------------------------|
A|-------------------------|
D|-------------------------|


[gtr3] joins in the third bar
e|-----------------------------------------------------------------|
B|-----------------------------------------------------------------|
G|-----------------------------------------------------------------|
D|--------3-------5-------7-------6----------------5---------------|
A|-----------------------------------------------------------------|
D|-----------------------------------------------------------------|

e|-----------------------------------------------------------------|
B|-----------------------------------------------------------------|
G|-----------------------------------------------------------------|
D|-3------3-------5-------7-------6----------------8---------------|
A|-----------------------------------------------------------------|
D|-----------------------------------------------------------------|

e|-------------------------|
B|-------------------------|
G|-10----------------------|
D|-------------------------|
A|-------------------------|
D|-------------------------|

INTERLUDE 2
[gtr1]
e|-----------------------------------------------------------5-----|
B|-6-6-6-6---6-6-6-6-7-7-7-6-6---6-6-6-6-6-6-6-6-6-6-7-7-7-7---6---|
G|-6-6-6-6---6-6-6-6-6-6-6-6-6---6-6-6-6-6-6-6-6-6-6-6-6-6-6-6-6---|
D|-----------------------------------------------------------------|
A|-4-4-4-4---4-4-4-4-4-4-4-4-4---4-4-4-4-4-4-4-4-4-4-4-4-4-4-4-4---|
D|-----------------------------------------------------------------|

e|---------------------------------------------1-2-2-2-2-1-1-------|
B|-2-2-2-2---2-2-1-1-1-1-1-1-1---1-1-1-1---1-1---------------------|
G|-3-3-3-3---3-3-3-3-3-3-3-3-3---3-3-3-3---3-3-3-2-2-2-2-2-2-------|
D|-4-4-4-4---4-4-4-4-4-4-4-4-4---3-3-3-3---3-3-3-3-3-3-3-3-3-------|
A|-----------------------------------------------------------------|
D|-----------------------------------------------------------------|

e|-----------------------------------------------------------5-----|
B|-6-6-6-6---6-6-6-6-7-7-7-6-6---6-6-6-6-6-6-6-6-6-6-7-7-7-7---6---|
G|-6-6-6-6---6-6-6-6-6-6-6-6-6---6-6-6-6-6-6-6-6-6-6-6-6-6-6-6-6---|
D|-----------------------------------------------------------------|
A|-4-4-4-4---4-4-4-4-4-4-4-4-4---4-4-4-4-4-4-4-4-4-4-4-4-4-4-4-4---|
D|-----------------------------------------------------------------|

e|---------------------------------------------1-2-2-2-2-1-1-------|
B|-2-2-2-2---2-2-1-1-1-1-1-1-1---1-1-1-1---1-1---------------------|
G|-3-3-3-3---3-3-3-3-3-3-3-3-3---3-3-3-3---3-3-3-2-2-2-2-2-2-------|
D|-4-4-4-4---4-4-4-4-4-4-4-4-4---3-3-3-3---3-3-3-3-3-3-3-3-3-------|
A|-----------------------------------------------------------------|
D|-----------------------------------------------------------------|

e|-----------------------------------------------------------5-----|
B|-6-6-6-6---6-6-6-6-7-7-7-6-6---6-6-6-6-6-6-6-6-6-6-7-7-7-7---6---|
G|-6-6-6-6---6-6-6-6-6-6-6-6-6---6-6-6-6-6-6-6-6-6-6-6-6-6-6-6-6---|
D|-----------------------------------------------------------------|
A|-4-4-4-4---4-4-4-4-4-4-4-4-4---4-4-4-4-4-4-4-4-4-4-4-4-4-4-4-4---|
D|-----------------------------------------------------------------|

e|---------------------------------------------1-2-2-2-2-1-1-------|
B|-2-2-2-2---2-2-1-1-1-1-1-1-1---1-1-1-1---1-1---------------------|
G|-3-3-3-3---3-3-3-3-3-3-3-3-3---3-3-3-3---3-3-3-2-2-2-2-2-2-------|
D|-4-4-4-4---4-4-4-4-4-4-4-4-4---3-3-3-3---3-3-3-3-3-3-3-3-3-------|
A|-----------------------------------------------------------------|
D|-----------------------------------------------------------------|

e|-----------------------------------------------------------5-----|
B|-6-6-6-6---6-6-6-6-7-7-7-6-6---6-6-6-6-6-6-6-6-6-6-7-7-7-7---6---|
G|-6-6-6-6---6-6-6-6-6-6-6-6-6---6-6-6-6-6-6-6-6-6-6-6-6-6-6-6-6---|
D|-----------------------------------------------------------------|
A|-4-4-4-4---4-4-4-4-4-4-4-4-4---4-4-4-4-4-4-4-4-4-4-4-4-4-4-4-4---|
D|-----------------------------------------------------------------|

e|---------------------------------------------1-2-2-2-2-1-1-------|
B|-2-2-2-2---2-2-1-1-1-1-1-1-1---1-1-1-1---1-1---------------------|
G|-3-3-3-3---3-3-3-3-3-3-3-3-3---3-3-3-3---3-3-3-2-2-2-2-2-2-------|
D|-4-4-4-4---4-4-4-4-4-4-4-4-4---3-3-3-3---3-3-3-3-3-3-3-3-3-------|
A|-----------------------------------------------------------------|
D|-----------------------------------------------------------------|

[gtr2] joins after 2 bars of [gtr1]
e|-----------------------------------------------------------------|
B|-----------------------------------------------------------------|
G|-----------------------------------------------------------------|
D|-6-6-6-6-6-6-6-6-6-6-6-6-6-6-6-6-6-6-6-6-6-6-6-6-6-6-6-6-6-6-6-6-|
A|-4-4-4-4-4-4-4-4-4-4-4-4-4-4-4-4-4-4-4-4-4-4-4-4-4-4-4-4-4-4-4-4-|
D|-----------------------------------------------------------------|

e|-----------------------------------------------------------------|
B|-----------------------------------------------------------------|
G|-----------------------------------------------------------------|
D|-----------------------------------------------------------------|
A|-4-4-4-4-4-4-4-4-4-4-4-4-4-4-4-4-3-3-3-3-3-3-3-3-3-3-3-3-3-3-3-3-|
D|-4-4-4-4-4-4-4-4-4-4-4-4-4-4-4-4-3-3-3-3-3-3-3-3-3-3-3-3-3-3-3-3-|

e|-----------------------------------------------------------------|
B|-----------------------------------------------------------------|
G|-----------------------------------------------------------------|
D|-6-6-6-6-6-6-6-6-6-6-6-6-6-6-6-6-6-6-6-6-6-6-6-6-6-6-6-6-6-6-6-6-|
A|-4-4-4-4-4-4-4-4-4-4-4-4-4-4-4-4-4-4-4-4-4-4-4-4-4-4-4-4-4-4-4-4-|
D|-----------------------------------------------------------------|

e|-----------------------------------------------------------------|
B|-----------------------------------------------------------------|
G|-----------------------------------------------------------------|
D|-----------------------------------------------------------------|
A|-4-4-4-4-4-4-4-4-4-4-4-4-4-4-4-4-3-3-3-3-3-3-3-3-3-3-3-3-3-3-3-3-|
D|-4-4-4-4-4-4-4-4-4-4-4-4-4-4-4-4-3-3-3-3-3-3-3-3-3-3-3-3-3-3-3-3-|

[gtr3] joins after 2 bars of [gtr1]
e|-----------------------------------------------------------------|
B|-6----------6-----7---9---6------------6---7---9-----------------|
G|-----------------------------------------------------------------|
D|-----------------------------------------------------------------|
A|-----------------------------------------------------------------|
D|-----------------------------------------------------------------|

e|-----------------------------------------------------------------|
B|-10--------11---------------11---------------10------------------|
G|-----------------------------------------------------------------|
D|-----------------------------------------------------------------|
A|-----------------------------------------------------------------|
D|-----------------------------------------------------------------|

e|-----------------------------------------------------------------|
B|-9----------9----10--12---9------------9--10--12-----------------|
G|-----------------------------------------------------------------|
D|-----------------------------------------------------------------|
A|-----------------------------------------------------------------|
D|-----------------------------------------------------------------|

e|-----------------------------------------------------------------|
B|-13---------b14-------14br13-13-------11-10----------------------|
G|----------------------------------------------11-10--------------|
D|------------------------------------------------------13-10------|
A|-----------------------------------------------------------------|
D|-----------------------------------------------------------------|

[gtr4] joins after 2 bars of [gtr1]
e|-----------------------------------------------------------------|
B|-----------------------------------------------------------------|
G|-6----------6-----8---10---6------------6---8---10---------------|
D|-----------------------------------------------------------------|
A|-----------------------------------------------------------------|
D|-----------------------------------------------------------------|

e|-----------------------------------------------------------------|
B|-----------------------------------------------------------------|
G|-11--------11---------------10---------------10------------------|
D|-----------------------------------------------------------------|
A|-----------------------------------------------------------------|
D|-----------------------------------------------------------------|

e|-----------------------------------------------------------------|
B|-6----------6-----7---9---6------------6---7---9-----------------|
G|-----------------------------------------------------------------|
D|-----------------------------------------------------------------|
A|-----------------------------------------------------------------|
D|-----------------------------------------------------------------|

e|-----------------------------------------------------------------|
B|-10--------b11------------11br10-10------------------------------|
G|--------------------------------------11-10----------------------|
D|--------------------------------------------13-10----------------|
A|--------------------------------------------------13-12----------|
D|-----------------------------------------------------------------|

BREAKDOWN
e|-----------------------------------------------------------------|
B|-----------------------------------------------------------------|
G|-----------------------------------------------------------------|
D|-3-3-3-3-3-3-3-3-3-3-3-3-3-3-3-3-3-3-3-3-3-3-3-3-3-3-3-3-3-3-3-3-|
A|-3-3-3-3-3-3-3-3-3-3-3-3-3-3-3-3-3-3-3-3-3-3-3-3-3-3-3-3-3-3-3-3-|
D|-3-3-3-3-3-3-3-3-3-3-3-3-3-3-3-3-3-3-3-3-3-3-3-3-3-3-3-3-3-3-3-3-|

CHORUS

e|-------------------------------------------------------------------|
B|-------------------------------------------------------------------|
G|-9-9-9-9-----5---7---7---7---7---7-9-9-7-7-3-----2---4-4-4-4-4-4-4-|
D|-9-9-9-9-----5---7---7---7---7---7-9-9-7-7-3-----2---4-4-4-4-4-4-4-|
A|-7-7-7-7-----3---5---5---5---5---5-7-7-5-5-1-----0---2-2-2-2-2-2-2-|
D|-------------------------------------------------------------------|

e|---------------------------------|
B|---------------------------------|
G|-8-8-8-8-8-8-8-8-8-8-8-8-8-8-8-8-|
D|-8-8-8-8-8-8-8-8-8-8-8-8-8-8-8-8-|
A|-6-6-6-6-6-6-6-6-6-6-6-6-6-6-6-6-|
D|---------------------------------|


e|-------------------------------------------------------------------|
B|-------------------------------------------------------------------|
G|-9-9-9-9-----5---7---7---7---7---7-9-9-7-7-3-----2---4-4-4-4-4-4-4-|
D|-9-9-9-9-----5---7---7---7---7---7-9-9-7-7-3-----2---4-4-4-4-4-4-4-|
A|-7-7-7-7-----3---5---5---5---5---5-7-7-5-5-1-----0---2-2-2-2-2-2-2-|
D|-------------------------------------------------------------------|

e|---------------------------------|
B|---------------------------------|
G|---------------------------------|
D|-1-1-1-1-1-1-1-1-1-1-1-1-1-1-1-1-|
A|-1-1-1-1-1-1-1-1-1-1-1-1-1-1-1-1-|
D|-1-1-1-1-1-1-1-1-1-1-1-1-1-1-1-1-|

e|-------------------------------------------------------------------|
B|-------------------------------------------------------------------|
G|-9-9-9-9-----5---7---7---7---7---7-9-9-7-7-3-----2---4-4-4-4-4-4-4-|
D|-9-9-9-9-----5---7---7---7---7---7-9-9-7-7-3-----2---4-4-4-4-4-4-4-|
A|-7-7-7-7-----3---5---5---5---5---5-7-7-5-5-1-----0---2-2-2-2-2-2-2-|
D|-------------------------------------------------------------------|

e|-------------------------------------------------------------------|
B|-------------------------------------------------------------------|
G|-------------------------------------------------------------------|
D|-3-3-3-3-3-3-3-3-3-3-3-3-3-3-3-3-3-3-3-3-3-3-3-3-3-3-3-3-3-3-3-3-2-|
A|-3-3-3-3-3-3-3-3-3-3-3-3-3-3-3-3-3-3-3-3-3-3-3-3-3-3-3-3-3-3-3-3-2-|
D|-3-3-3-3-3-3-3-3-3-3-3-3-3-3-3-3-3-3-3-3-3-3-3-3-3-3-3-3-3-3-3-3-2-|

[gtr2] joins in the end of the second chorus with [gtr3]
e|-------------------------------------|
B|-8-8-----10-10-----11-11-----8-8-----|
G|-------------------------------------|
D|-------------------------------------|
A|-------------------------------------|
D|-------------------------------------|

e|-----------------------------------------------7-------7-----|
B|-8-7h8p7---------7------7------7-8-7h8p7---------10b---------|
G|---------9-9---9-----9b-----9b-----------9-9-----------------|
D|-------------------------------------------------------------|
A|-------------------------------------------------------------|
D|-------------------------------------------------------------|

e|-----------------------------------5-5----7-7----8-8----5-5----7-|
B|-6-6-----8-8-----10-10-----6-6-----------------------------------|
G|-----------------------------------------------------------------|
D|-----------------------------------------------------------------|
A|-----------------------------------------------------------------|
D|-----------------------------------------------------------------|

[gtr3]
e|-------------------------------------|
B|-------------------------------------|
G|-8-8-----10-10-----12-12-----8-8-----|
D|-------------------------------------|
A|-------------------------------------|
D|-------------------------------------|

e|-----------------------------------------------------------------|
B|----------------------------------------------------7------7-----|
G|-8-7h8p7------------7------7------7-8-7h8p7-----------9b---------|
D|---------10-10---10----10b----10b-----------10-10----------------|
A|-----------------------------------------------------------------|
D|-----------------------------------------------------------------|

e|-----------------------------------5-5-----7-7-----8-8-----5-5-----7-|
B|-6-6-----8-8-----10-10-----6-6---------------------------------------|
G|---------------------------------------------------------------------|
D|---------------------------------------------------------------------|
A|---------------------------------------------------------------------|
D|---------------------------------------------------------------------|



************************************

| /   slide up
| \   slide down
| h   hammer-on
| p   pull-off
| ~   vibrato
| +   harmonic
| x   Mute note
| b   Bend
| pb  Pre-bend
| br  Bend release
| pbr Pre-bend release
| brb Bend release bend

************************************

Добавлено: 12.03.2016
Другие материалы по этой песне:
  • Аккорды и текст

Страница создана 12.03.2016
http://primanota.ru/woyh/kalasatamaan-chords.htm
Привет, Гость.
Предлагаем пройти революционный курс по гитаре.
Подарок от PrimaNota.Ru, забирай!