PrimaNota.ru - самый крупный в мире бесплатный архив песенных текстов, аккордов, табулатур и нот


Wöyh - Ikkillyk - таба, видео

Регистрация Запомнить меня
Войти через:  Facebook Google Twitter Vk Yandex Mail.ru

Wöyh - Ikkillyk - таба, видео

Печатать
Просмотров: 56
-------------------------------------------------------------------------------
                           Wöyh! - Ikkillyk
-------------------------------------------------------------------------------

Tabbed by: myskimasa

Tuning: drop D

I've still got some issues with the rhythmics. I hope you'll get the hang of it!
Criticism and corrections are welcome.

INTRO
e|-----------------------------------------------------|
B|-----------------------------------------------------|
G|-------------5-----------------------5---------------|
D|-0---6-6p4p0-----6-6p4p0-----6-6p4p0-----6-6p4p0-0---|
A|-----------------------------------------------------|
D|-------------------------0---------------------------|

e|-----------------------------------------------------|
B|-----------------------------------------------------|
G|-------------5-----------------------5---------------|
D|-0---6-6p4p0-----6-6p4p0-----6-6p4p0-----6-6p4p0-0---|
A|-----------------------------------------------------|
D|-------------------------0---------------------------|

e|-----------------------------------------------------|
B|-----------------------------------------------------|
G|-------------5-----------------------5---------------|
D|-0---6-6p4p0-----6-6p4p0-----6-6p4p0-----6-6p4p0-0---|
A|-----------------------------------------------------|
D|-------------------------0---------------------------|

e|-----------------------------------------------------|
B|-----------------------------------------------------|
G|-------------5-----------------------5---------------|
D|-0---6-6p4p0-----6-6p4p0-----6-6p4p0-----6-6p4p0-0---|
A|-----------------------------------------------------|
D|-------------------------0---------------------------|

e|-----------------------------------------------------|
B|-----------------------------------------------------|
G|-------------5-----------------------5---------------|
D|-0---6-6p4p0-----6-6p4p0-----6-6p4p0-----6-6p4p0-0---|
A|-----------------------------------------------------|
D|-------------------------0---------------------------|

e|-----------------------------------------------------|
B|-----------------------------------------------------|
G|-------------5-----------------------5---------------|
D|-0---6-6p4p0-----6-6p4p0-----6-6p4p0-----6-6p4p0-0---|
A|-----------------------------------------------------|
D|-------------------------0---------------------------|

PRE-VERSE
[gtr1]
e|--------------------------------------------------|
B|----------------5-----------------------5---7-----|
G|-4------------------6---3---4---------------------|
D|-4--------------------------4---------------------|
A|-2--------------------------2---------------------|
D|--------------------------------------------------|

e|------------------------------|
B|----------------5-------------|
G|-4------------------6---3-----|
D|-4----------------------------|
A|-2----------------------------|
D|------------------------------|

[gtr2]
e|-------------------------------------------------|
B|-------------------------------------------------|
G|-4--------------6-----------4----------6---8-----|
D|-4------------------7---4---4--------------------|
A|-2--------------------------2--------------------|
D|-------------------------------------------------|

e|------------------------------|
B|------------------------------|
G|-4--------------6-------------|
D|-4------------------7---4-----|
A|-2----------------------------|
D|------------------------------|

INTERLUDE
e|-----------------------------------------------------------------|
B|-----------------------------------------------------------------|
G|-4---4---4---4---4---4---4---4---7---7---7---7---7---7---7---7---|
D|-6---6---6---6---6---6---6---6---9---9---9---9---9---9---9---9---|
A|-----------------------------------------------------------------|
D|-----------------------------------------------------------------|

e|---------------------------------------------------------------------|
B|---------------------------------------------------------------------|
G|-4---4---4---4---4---4---4---4---7---7---7---7---10---10---10---10---|
D|-6---6---6---6---6---6---6---6---9---9---9---9---12---12---12---12---|
A|---------------------------------------------------------------------|
D|---------------------------------------------------------------------|

e|-----------------------------------------------------------------|
B|-----------------------------------------------------------------|
G|-4---4---4---4---4---4---4---4---7---7---7---7---7---7---7---4---|
D|-6---6---6---6---6---6---6---6---9---9---9---9---9---9---9---6---|
A|-----------------------------------------------------------------|
D|-----------------------------------------------------------------|

e|---------------------------------------------------------------------|
B|---------------------------------------------------------------------|
G|-4---4---4---4---4---4---4---4---7---7---7---7---10---10---10---10---|
D|-6---6---6---6---6---6---6---6---9---9---9---9---12---12---12---12---|
A|---------------------------------------------------------------------|
D|---------------------------------------------------------------------|

VERSE
e|--------------------------------------------------------------------------|
B|--------------------------------------------------------------------------|
G|-4------------------------4-----------------------4-----------------------|
D|-4---7p4p0-4p0-----2------4---7p4p0-4p0-----6-----4---7p4p0-4p0-----2-----|
A|-2-------------2---2------2-------------2---6-----2-------------2---2-----|
D|-------------------2------------------------6-----------------------2-----|

INTERLUDE
e|-----------------------------------------------------------------|
B|-----------------------------------------------------------------|
G|-4---4---4---4---4---4---4---4---7---7---7---7---7---7---7---7---|
D|-6---6---6---6---6---6---6---6---9---9---9---9---9---9---9---9---|
A|-----------------------------------------------------------------|
D|-----------------------------------------------------------------|

e|---------------------------------------------------------------------|
B|---------------------------------------------------------------------|
G|-4---4---4---4---4---4---4---4---7---7---7---7---10---10---10---10---|
D|-6---6---6---6---6---6---6---6---9---9---9---9---12---12---12---12---|
A|---------------------------------------------------------------------|
D|---------------------------------------------------------------------|

e|-----------------------------------------------------------------|
B|-----------------------------------------------------------------|
G|-4---4---4---4---4---4---4---4---7---7---7---7---7---7---7---7---|
D|-6---6---6---6---6---6---6---6---9---9---9---9---9---9---9---9---|
A|-----------------------------------------------------------------|
D|-----------------------------------------------------------------|

e|---------------------------------------------------------------------|
B|---------------------------------------------------------------------|
G|-4---4---4---4---4---4---4---4---7---7---7---7---10---10---10---10---|
D|-6---6---6---6---6---6---6---6---9---9---9---9---12---12---12---12---|
A|---------------------------------------------------------------------|
D|---------------------------------------------------------------------|

BRIDGE
e|----------------------------------------------|
B|----------------------------------------------|
G|-----------6---4---6--------------------------|
D|-2-----4---6---4---6----4-4-4-4-4-4-4-4-4-4-4-|
A|-2-----4---4---2---4----4-4-4-4-4-4-4-4-4-4-4-|
D|-2-----4----------------4-4-4-4-4-4-4-4-4-4-4-|

e|------------------------------------|
B|------------------------------------|
G|-6---4---6--------------------------|
D|-6---4---6----4-4-4-4-4-4-4-4-4-4-4-|
A|-4---2---4----4-4-4-4-4-4-4-4-4-4-4-|
D|--------------4-4-4-4-4-4-4-6-6-6-6-|

e|-------------------------------------------------------------------------|
B|-------------------------------------------------------------------------|
G|-6---4---6----7-7-7-7----------------------------------------------------|
D|-6---4---6----7-7-7-7-7-7-7-7-10-9-10---12-12-12-12-12-12-12-12---12-----|
A|-4---2---4----5-5-5-5-7-7-7-7--8-7--8---10-10-10-10-10-10-10-10---10-----|
D|----------------------7-7-7-7--------------------------------------------|

e|----------------------------------------------|
B|----------------------------------------------|
G|-----------6---4---6--------------------------|
D|-2-----4---6---4---6----4-4-4-4-4-4-4-4-4-4-4-|
A|-2-----4---4---2---4----4-4-4-4-4-4-4-4-4-4-4-|
D|-2-----4----------------4-4-4-4-4-4-4-4-4-4-4-|

e|------------------------------------|
B|------------------------------------|
G|-6---4---6--------------------------|
D|-6---4---6----4-4-4-4-4-4-4-4-4-4-4-|
A|-4---2---4----4-4-4-4-4-4-4-4-4-4-4-|
D|--------------4-4-4-4-4-4-4-6-6-6-6-|

e|------------------------------------------------------------------------|
B|------------------------------------------------------------------------|
G|-6---4---6----7-7-7-7---------------------------------------------------|
D|-6---4---6----7-7-7-7-7-7-7-7-10---9---10-----10-----10---9---10-----10-|
A|-4---2---4----5-5-5-5-7-7-7-7--8---7----8------8------8---7----8------8-|
D|----------------------7-7-7-7-------------------------------------------|

e|----------------------------------------------------|
B|----------------------------------------------------|
G|----------------------------------------------------|
D|-10---9---10-----10-----10---9---10---12-----12-----|
A|--8---7----8------8------8---7----8---10-----10-----|
D|----------------------------------------------------|

INTERLUDE 2
e|-------------------------------------------------------------|
B|-------------------------7-----------------------------------|
G|-4---4-----4-4p3h4---4---------4---4-----3-4---3---4---4-----|
D|-------------------------------------------------------------|
A|-------------------------------------------------------------|
D|-------------------------------------------------------------|

e|-------------------------------------------------------------|
B|-------------------------7-----------------------------------|
G|-------------------------------------------------------------|
D|-7---7-----7-7p6h7---7---------7---7-----6-7---6---7---6-----|
A|-------------------------------------------------------------|
D|-------------------------------------------------------------|

e|-------------------------------------------------------------|
B|-------------------------------------------------------------|
G|-------------------------7-----------------------------------|
D|-5---5-----5-5p4h5---5---------5---5-----4-5---4---5---4-----|
A|-------------------------------------------------------------|
D|-------------------------------------------------------------|

e|-------------------------2---------------------2---2---------|
B|-3---3-----3-3p2h3---3---------2---2-----2-2-----------------|
G|-------------------------------------------------------------|
D|-------------------------------------------------------------|
A|-------------------------------------------------------------|
D|-------------------------------------------------------------|

e|-------------------------2-----------------------------------|
B|-3---3-----3-3p2h3---3---------3---3-----2-3---2---3---3-----|
G|-------------------------------------------------------------|
D|-------------------------------------------------------------|
A|-------------------------------------------------------------|
D|-------------------------------------------------------------|

e|-------------------------2-----------------------------------|
B|-3---3-----3-3p2h3---3---------3---3-----2-3---2---3---2-----|
G|-------------------------------------------------------------|
D|-------------------------------------------------------------|
A|-------------------------------------------------------------|
D|-------------------------------------------------------------|

e|-------------------------2-----------------------------------|
B|-2---2-----2-2p0h2---2---------2---2-----2-2---2---2---2-----|
G|-------------------------------------------------------------|
D|-------------------------------------------------------------|
A|-------------------------------------------------------------|
D|-------------------------------------------------------------|

e|-------------------------2---2-------------------------------|
B|-2---2-----2-2p0h2---2-----------5---3---2-------------------|
G|---------------------------------------------4---2-----------|
D|-----------------------------------------------------5---4---|
A|-------------------------------------------------------------|
D|-------------------------------------------------------------|

e|-----------------------------------------------------------------|
B|-----------------------------------------------------------------|
G|-----------------------------------------------------------------|
D|-5---5---5---5---5---5---5---5---5---5---5---5---4---4---4---4---|
A|-----------------------------------------------------------------|
D|-----------------------------------------------------------------|

e|-----------------------------------------------------------------|
B|-----------------------------------------------------------------|
G|-----------------------------------------------------------------|
D|-2---2---2---2---2---2---2---2---2---2---2---2-------------------|
A|-------------------------------------------------5---5---5---5---|
D|-----------------------------------------------------------------|

e|----------------------------------------------------------------------2-----|
B|----------------------------------------------------------------------3-----|
G|----------------------------------------------------------------------4-----|
D|----------------------------------------------------------------------4-----|
A|-3---3---3---3---3---3---3---3---3---3---3---3---3---3---3---3--------2-----|
D|----------------------------------------------------------------------------|


OUTRO
e|-----------------------------------------------------|
B|-----------------------------------------------------|
G|-------------5-----------------------5---------------|
D|-0---6-6p4p0-----6-6p4p0-----6-6p4p0-----6-6p4p0-0---|
A|-----------------------------------------------------|
D|-------------------------0---------------------------|

e|-----------------------------------------------------|
B|-----------------------------------------------------|
G|-------------5-----------------------5---------------|
D|-0---6-6p4p0-----6-6p4p0-----6-6p4p0-----6-6p4p0-0---|
A|-----------------------------------------------------|
D|-------------------------0---------------------------|

e|-----------------------------------------------------|
B|-----------------------------------------------------|
G|-------------4-----------------------4---------------|
D|-0---5-5p3p0-----5-5p3p0-----5-5p3p0-----5-5p3p0-0---|
A|-----------------------------------------------------|
D|-------------------------5---------------------------|

e|-----------------------------------------------------|
B|-----------------------------------------------------|
G|-------------4-----------------------4---------------|
D|-0---5-5p3p0-----5-5p3p0-----5-5p3p0-----5-5p3p0-0---|
A|-----------------------------------------------------|
D|-------------------------5---------------------------|

e|-----------------------------------------------------|
B|-----------------------------------------------------|
G|-------------5-----------------------5---------------|
D|-0---6-6p4p0-----6-6p4p0-----6-6p4p0-----6-6p4p0-0---|
A|-----------------------------------------------------|
D|-------------------------0---------------------------|

e|-----------------------------------------------------|
B|-----------------------------------------------------|
G|-------------5-----------------------5---------------|
D|-0---6-6p4p0-----6-6p4p0-----6-6p4p0-----6-6p4p0-0---|
A|-----------------------------------------------------|
D|-------------------------0---------------------------|

e|-----------------------------------------------------|
B|-----------------------------------------------------|
G|-------------4-----------------------4---------------|
D|-0---5-5p3p0-----5-5p3p0-----5-5p3p0-----5-5p3p0-0---|
A|-----------------------------------------------------|
D|-------------------------5---------------------------|

e|-----------------------------------------------------|
B|-----------------------------------------------------|
G|-------------4-----------------------4---------------|
D|-0---5-5p3p0-----5-5p3p0-----5-5p3p0-----5-5p3p0-0---|
A|-----------------------------------------------------|
D|-------------------------5---------------------------|

e|---------------------------------------------------------------------------------|
B|---------------------------------------------------------------------------------|
G|------------11------------------------------11-----------------------------------|
D|-12-12p10p0------12-12p10p0------12-12p10p0------12-12p10p0-10---11---12---------|
A|----------------------------11---------------------------------------------------|
D|---------------------------------------------------------------------------0-0---|

e|---------------------------------------------------------------------------------|
B|---------------------------------------------------------------------------------|
G|------------11------------------------------11-----------------------------------| 
D|-12-12p10p0------12-12p10p0-0----12-12p10p0------12-12p10p0-10---11---12---------|
A|---------------------------------------------------------------------------------|
D|---------------------------------------------------------------------------0-0---|

e|---------------------------------------------------------------------------------------------|
B|---------------------------------------------------------------------------------------------|
G|---------------11------------------------------------11--------------------------------------|
D|-12-12-12p10p0------12-12-12p10p0------12-12-12p10p0------12-12-12p10p0-10---11---12---------|
A|----------------------------------11---------------------------------------------------------|
D|---------------------------------------------------------------------------------------0-0---|

e|-------------------------------------------------------------------------------------|
B|-------------------------------------------------------------------------------------|
G|---------------11------------------------------------11------------------------------|
D|-12-12-12p10p0------12-12-12p10p0-0----12-12-12p10p0------12-12-12p10p0-10---11---12-|
A|-------------------------------------------------------------------------------------|
D|-------------------------------------------------------------------------------------|

e|-------------------11----------------|
B|-------------------11----------------|
G|-15----------------12----------------|
D|-13----------------13----------------|
A|-13----------------------------------|
D|-13----------------------------------|

OUTRO

C#m G# D#m A#
C#m G# D#m A#
C#m G# D#m A#



CHORD LEGEND FOR OUTRO

  C#m G# D#m A#
e|---------------|
B|-5--4---7--6---|
G|-6--5---8--7---|
D|-6--6---8--8---|
A|-4--6---6--8---|
D|---------------|


************************************

| /   slide up
| \   slide down
| h   hammer-on
| p   pull-off
| ~   vibrato
| +   harmonic
| x   Mute note
| b   Bend
| pb  Pre-bend
| br  Bend release
| pbr Pre-bend release
| brb Bend release bend

************************************
Добавлено: 12.03.2016
Другие материалы по этой песне:
  • Аккорды и текст

Страница создана 12.03.2016
http://primanota.ru/woyh/ikkillyk-chords.htm
Привет, Гость.
Предлагаем пройти революционный курс по гитаре.
Подарок от PrimaNota.Ru, забирай!