PrimaNota.ru - самый крупный в мире бесплатный архив песенных текстов, аккордов, табулатур и нот


Wöyh - Afroditen Saarella - таба, видео

Регистрация Запомнить меня
Войти через:  Facebook Google Twitter Vk Yandex Mail.ru

Wöyh - Afroditen Saarella - таба, видео

Печатать
Просмотров: 52
-------------------------------------------------------------------------------
                          Wöyh!- Afroditen saarella
-------------------------------------------------------------------------------

Tabbed by: myskimasa

Tuning: drop D


INTRO
e|-----------------------------------------------------------------|
B|-----------------------------------------------------------------|
G|-5---------------5---------------5----------------5--------------|
D|-5---------------5---------------5----------------5--------------|
A|-3---------------3---------------3----------------3--------------|
D|-----------------------------------------------------------------|


VERSE 1
e|-----------------------------------------------------------------|
B|-----------------------------------------------------------------|
G|-5-5-5-5-5-5-5-5-5-5-5-5-5-5-5-5-5-5-5-5-5-5-5-5-5-5-5-5-5-5-5-5-|
D|-5-5-5-5-5-5-5-5-5-5-5-5-5-5-5-5-5-5-5-5-5-5-5-5-5-5-5-5-5-5-5-5-|
A|-3-3-3-3-3-3-3-3-3-3-3-3-3-3-3-3-3-3-3-3-3-3-3-3-3-3-3-3-3-3-3-3-|
D|-----------------------------------------------------------------|

e|-----------------------------------|
B|-----------------------------------|
G|-3-3-3-3-3-3-3-3-3-3-3-3-3-3-3-3-3-|
D|-3-3-3-3-3-3-3-3-3-3-3-3-3-3-3-3-3-|
A|-1-1-1-1-0-0-0-0-1-1-1-1-1-1-1-1-1-|
D|-----------------------------------|

e|-----------------------------------------------------------------|
B|-----------------------------------------------------------------|
G|-5-5-5-5-5-5-5-5-5-5-5-5-5-5-5-5-5-5-5-5-5-5-5-5-5-5-5-5-5-5-5-5-|
D|-5-5-5-5-5-5-5-5-5-5-5-5-5-5-5-5-5-5-5-5-5-5-5-5-5-5-5-5-5-5-5-5-|
A|-3-3-3-3-3-3-3-3-3-3-3-3-3-3-3-3-3-3-3-3-3-3-3-3-3-3-3-3-3-3-3-3-|
D|-----------------------------------------------------------------|

e|-----------------------------------|
B|-----------------------------------|
G|-3-3-3-3-3-3-3-3-3-3-3-3-3-3-3-3-3-|
D|-3-3-3-3-3-3-3-3-3-3-3-3-3-3-3-3-3-|
A|-1-1-1-1-0-0-0-0-1-1-1-1-1-1-1-1-1-|
D|-----------------------------------|


BRIDGE
e|-----------------------------------------------------------------|
B|-----------------------------------------------------------------|
G|-2-2-2-2-2-2-2-2-----------------2-2-2-2-2-2-2-2-----------------|
D|-2-2-2-2-2-2-2-2-1-1-1-1-1-1-1-1-2-2-2-2-2-2-2-2-1-1-1-1-3-3-3-3-|
A|-0-0-0-0-0-0-0-0-1-1-1-1-1-1-1-1-0-0-0-0-0-0-0-0-1-1-1-1-3-3-3-3-|
D|-----------------1-1-1-1-1-1-1-1-----------------1-1-1-1-3-3-3-3-|

e|-----------------------------------------------------------------|
B|-----------------------------------------------------------------|
G|-2-2-2-2-2-2-2-2-------------------------------------------------|
D|-2-2-2-2-2-2-2-2-1-1-1-1-3-3-3-3-5-5-5-5-5-5-5-5-5-5-5-5-5-5-5-5-|
A|-0-0-0-0-0-0-0-0-1-1-1-1-3-3-3-3-5-5-5-5-5-5-5-5-5-5-5-5-5-5-5-5-|
D|-----------------1-1-1-1-3-3-3-3-5-5-5-5-5-5-5-5-5-5-5-5-5-5-5-5-|


CHORUS
e|---------------------------------------------------------------------------------|
B|---------------------------------------------------------------------------------|
G|---------------------------------------------------------------------------------|
D|-10-10-10-10-10-10-10-10--9--9--9--9--9--9--9--9-8-8-8-8-8-8-8-8-7-7-7-7-7-7-7-7-|
A|-10-10-10-10-10-10-10-10-10-10-10-10-10-10-10-10-8-8-8-8-8-8-8-8-8-8-8-8-8-8-8-8-|
D|-10-10-10-10-10-10-10-10--9--9--9--9--9--9--9--9-8-8-8-8-8-8-8-8-7-7-7-7-7-7-7-7-|

e|-----------------------------------------------------------------|
B|-----------------------------------------------------------------|
G|-----------------------------------------------------------------|
D|-6-6-6-6-6-6-6-6-5-5-5-5-5-5-5-5-3-3-3-3-3-3-3-3-3-3-3-3-3-3-3-3-|
A|-6-6-6-6-6-6-6-6-6-6-6-6-6-6-6-6-3-3-3-3-3-3-3-3-3-3-3-3-3-3-3-3-|
D|-6-6-6-6-6-6-6-6-5-5-5-5-5-5-5-5-3-3-3-3-3-3-3-3-3-3-3-3-3-3-3-3-|

e|---------------------------------------------------------------------------------|
B|---------------------------------------------------------------------------------|
G|---------------------------------------------------------------------------------|
D|-10-10-10-10-10-10-10-10--9--9--9--9--9--9--9--9-8-8-8-8-8-8-8-8-7-7-7-7-7-7-7-7-|
A|-10-10-10-10-10-10-10-10-10-10-10-10-10-10-10-10-8-8-8-8-8-8-8-8-8-8-8-8-8-8-8-8-|
D|-10-10-10-10-10-10-10-10--9--9--9--9--9--9--9--9-8-8-8-8-8-8-8-8-7-7-7-7-7-7-7-7-|

e|-----------------------------------------------------------------|
B|-----------------------------------------------------------------|
G|-----------------------------------------------------------------|
D|-6-6-6-6-6-6-6-6-5-5-5-5-5-5-5-5-3-3-3-3-3-3-3-3-3-3-3-3-3-3-3-3-|
A|-6-6-6-6-6-6-6-6-6-6-6-6-6-6-6-6-3-3-3-3-3-3-3-3-3-3-3-3-3-3-3-3-|
D|-6-6-6-6-6-6-6-6-5-5-5-5-5-5-5-5-3-3-3-3-3-3-3-3-3-3-3-3-3-3-3-3-|


POST-CHORUS
e|------------------------------------------------------|
B|------------------------------------------------------|
G|------------------------------------------------------|
D|-3----1----3--5----3----5--6----5----6--8------9------|
A|-3----1----3--5----3----5--6----5----6--8------9------|
D|-3----1----3--5----3----5--6----5----6--8------9------|


VERSE 2
e|-----------------------------------------------------------------|
B|-----------------------------------------------------------------|
G|-5-5-5-5-5-5-5-5-5-5-5-5-5-5-5-5-5-5-5-5-5-5-5-5-5-5-5-5-5-5-5-5-|
D|-5-5-5-5-5-5-5-5-5-5-5-5-5-5-5-5-5-5-5-5-5-5-5-5-5-5-5-5-5-5-5-5-|
A|-3-3-3-3-3-3-3-3-3-3-3-3-3-3-3-3-3-3-3-3-3-3-3-3-3-3-3-3-3-3-3-3-|
D|-----------------------------------------------------------------|

e|-----------------------------------|
B|-----------------------------------|
G|-3-3-3-3-3-3-3-3-3-3-3-3-3-3-3-3-3-|
D|-3-3-3-3-3-3-3-3-3-3-3-3-3-3-3-3-3-|
A|-1-1-1-1-0-0-0-0-1-1-1-1-1-1-1-1-1-|
D|-----------------------------------|

e|-----------------------------------------------------------------|
B|-----------------------------------------------------------------|
G|-5-5-5-5-5-5-5-5-5-5-5-5---3-3-3-5-5-5-5-5-5-5-5-5-5-5-5-5-5-5-5-|
D|-5-5-5-5-5-5-5-5-5-5-5-5---3-3-3-5-5-5-5-5-5-5-5-5-5-5-5-5-5-5-5-|
A|-3-3-3-3-3-3-3-3-3-3-3-3---1-1-1-3-3-3-3-3-3-3-3-3-3-3-3-3-3-3-3-|
D|-----------------------------------------------------------------|

e|-----------------------------------|
B|-----------------------------------|
G|-3---3---3---3---3---3---3---3-----|
D|-3---3---3---3---3---3---3---3-----|
A|-1---1---0---0---x---x---x---x-----|
D|-----------------5---5---3---3-----|


BRIDGE
e|-----------------------------------------------------------------|
B|-----------------------------------------------------------------|
G|-2-2-2-2-2-2-2-2-----------------2-2-2-2-2-2-2-2-----------------|
D|-2-2-2-2-2-2-2-2-1-1-1-1-1-1-1-1-2-2-2-2-2-2-2-2-1-1-1-1-3-3-3-3-|
A|-0-0-0-0-0-0-0-0-1-1-1-1-1-1-1-1-0-0-0-0-0-0-0-0-1-1-1-1-3-3-3-3-|
D|-----------------1-1-1-1-1-1-1-1-----------------1-1-1-1-3-3-3-3-|

e|-----------------------------------------------------------------|
B|-----------------------------------------------------------------|
G|-2-2-2-2-2-2-2-2-------------------------------------------------|
D|-2-2-2-2-2-2-2-2-1-1-1-1-3-3-3-3-5-5-5-5-5-5-5-5-5-5-5-5-5-5-5-5-|
A|-0-0-0-0-0-0-0-0-1-1-1-1-3-3-3-3-5-5-5-5-5-5-5-5-5-5-5-5-5-5-5-5-|
D|-----------------1-1-1-1-3-3-3-3-5-5-5-5-5-5-5-5-5-5-5-5-5-5-5-5-|


CHORUS
e|---------------------------------------------------------------------------------|
B|---------------------------------------------------------------------------------|
G|---------------------------------------------------------------------------------|
D|-10-10-10-10-10-10-10-10--9--9--9--9--9--9--9--9-8-8-8-8-8-8-8-8-7-7-7-7-7-7-7-7-|
A|-10-10-10-10-10-10-10-10-10-10-10-10-10-10-10-10-8-8-8-8-8-8-8-8-8-8-8-8-8-8-8-8-|
D|-10-10-10-10-10-10-10-10--9--9--9--9--9--9--9--9-8-8-8-8-8-8-8-8-7-7-7-7-7-7-7-7-|

e|-----------------------------------------------------------------|
B|-----------------------------------------------------------------|
G|-----------------------------------------------------------------|
D|-6-6-6-6-6-6-6-6-5-5-5-5-5-5-5-5-3-3-3-3-3-3-3-3-3-3-3-3-3-3-3-3-|
A|-6-6-6-6-6-6-6-6-6-6-6-6-6-6-6-6-3-3-3-3-3-3-3-3-3-3-3-3-3-3-3-3-|
D|-6-6-6-6-6-6-6-6-5-5-5-5-5-5-5-5-3-3-3-3-3-3-3-3-3-3-3-3-3-3-3-3-|

e|---------------------------------------------------------------------------------|
B|---------------------------------------------------------------------------------|
G|---------------------------------------------------------------------------------|
D|-10-10-10-10-10-10-10-10--9--9--9--9--9--9--9--9-8-8-8-8-8-8-8-8-7-7-7-7-7-7-7-7-|
A|-10-10-10-10-10-10-10-10-10-10-10-10-10-10-10-10-8-8-8-8-8-8-8-8-8-8-8-8-8-8-8-8-|
D|-10-10-10-10-10-10-10-10--9--9--9--9--9--9--9--9-8-8-8-8-8-8-8-8-7-7-7-7-7-7-7-7-|

e|-----------------------------------------------------------------|
B|-----------------------------------------------------------------|
G|-----------------------------------------------------------------|
D|-6-6-6-6-6-6-6-6-5-5-5-5-5-5-5-5-3-3-3-3-3-3-3-3-3-3-3-3-3-3-3-3-|
A|-6-6-6-6-6-6-6-6-6-6-6-6-6-6-6-6-3-3-3-3-3-3-3-3-3-3-3-3-3-3-3-3-|
D|-6-6-6-6-6-6-6-6-5-5-5-5-5-5-5-5-3-3-3-3-3-3-3-3-3-3-3-3-3-3-3-3-|


POST-CHORUS
e|------------------------------------------------------|
B|------------------------------------------------------|
G|------------------------------------------------------|
D|-3----1----3--5----3----5--6----5----6--8------9------|
A|-3----1----3--5----3----5--6----5----6--8------9------|
D|-3----1----3--5----3----5--6----5----6--8------9------|


INTERLUDE
e|---------------------------------------------------------------|
B|---------------------------------------------------------------|
G|---------------------------------------------------------------|
D|---------------------------------------------------------------|
A|-1h3---3-3---1-1-1h3---3-3---1-1-1h3---3-3---1-1-1h3---3-3-1---|
D|-----------------------------------------------------------1---|

e|---------------------------------------------------------------|
B|---------------------------------------------------------------|
G|---------------------------------------------------------------|
D|---------------------------------------------------------------|
A|-1h3---3-3---1-1-1h3---3-3---1-1-1h3---3-3---1-1-1h3---3-3-1---|
D|-----------------------------------------------------------1---|

e|---------------------------------------------------------------|
B|---------------------------------------------------------------|
G|---------------------------------------------------------------|
D|---------------------------------------------------------------|
A|-1h3---3-3---1-1-1h3---3-3---1-1-1h3---3-3---1-1-1h3---3-3-1---|
D|-----------------------------------------------------------1---|

e|---------------------------------------------------------------|
B|---------------------------------------------------------------|
G|---------------------------------------------------------------|
D|---------------------------------------------------------------|
A|-1h3---3-3---1-1-1h3---3-3---1-1-1h3---3-3---1-1-1h3---3-3-1---|
D|-----------------------------------------------------------1---|

e|---------------------------------------------------------------|
B|---------------------------------------------------------------|
G|---------------------------------------------------------------|
D|---------------------------------------------------------------|
A|-1h3---3-3---1-1-1h3---3-3---1-1-1h3---3-3---1-1-1h3---3-3-1---|
D|-----------------------------------------------------------1---|

e|---------------------------------------------------------------|
B|---------------------------------------------------------------|
G|---------------------------------------------------------------|
D|---------------------------------------------------------------|
A|-1h3---3-3---1-1-1h3---3-3---1-1-1h3---3-3---1-1-1h3---3-3-1---|
D|-----------------------------------------------------------1---|

e|------------------------------------------------------|
B|------------------------------------------------------|
G|------------------------------------------------------|
D|-3----1----3--5----3----5--6----5----6--8------9------|
A|-3----1----3--5----3----5--6----5----6--8------9------|
D|-3----1----3--5----3----5--6----5----6--8------9------|

e|-------------------------------------------------------------|
B|-------------------------------------------------------------|
G|-------------------------------------------------------------|
D|-------------------------------------------------------------|
A|-1h3---3-3---1-1-1h3---3-3---1-1-1h3---3-3---1-1-1h3---3-1---|
D|---------------------------------------------------------1---|

e|------------------------------------------------------------|
B|------------------------------------------------------------|
G|------------------------------------------------------------|
D|---------------------------------3----1----3--5----3----5---|
A|-1h3---3-3---1-1-1h3---3-3---1-1-3----1----3--5----3----5---|
D|---------------------------------3----1----3--5----3----5---|

e|-------------------------|
B|-------------------------|
G|-------------------------|
D|-----------3----1----3---|
A|-1h3---3-3-3----1----3---|
D|-----------3----1----3---|


CHORUS
e|---------------------------------------------------------------------------------|
B|---------------------------------------------------------------------------------|
G|---------------------------------------------------------------------------------|
D|-10-10-10-10-10-10-10-10--9--9--9--9--9--9--9--9-8-8-8-8-8-8-8-8-7-7-7-7-7-7-7-7-|
A|-10-10-10-10-10-10-10-10-10-10-10-10-10-10-10-10-8-8-8-8-8-8-8-8-8-8-8-8-8-8-8-8-|
D|-10-10-10-10-10-10-10-10--9--9--9--9--9--9--9--9-8-8-8-8-8-8-8-8-7-7-7-7-7-7-7-7-|

e|-----------------------------------------------------------------|
B|-----------------------------------------------------------------|
G|-----------------------------------------------------------------|
D|-6-6-6-6-6-6-6-6-5-5-5-5-5-5-5-5-3-3-3-3-3-3-3-3-3-3-3-3-3-3-3-3-|
A|-6-6-6-6-6-6-6-6-6-6-6-6-6-6-6-6-3-3-3-3-3-3-3-3-3-3-3-3-3-3-3-3-|
D|-6-6-6-6-6-6-6-6-5-5-5-5-5-5-5-5-3-3-3-3-3-3-3-3-3-3-3-3-3-3-3-3-|

e|---------------------------------------------------------------------------------|
B|---------------------------------------------------------------------------------|
G|---------------------------------------------------------------------------------|
D|-10-10-10-10-10-10-10-10--9--9--9--9--9--9--9--9-8-8-8-8-8-8-8-8-7-7-7-7-7-7-7-7-|
A|-10-10-10-10-10-10-10-10-10-10-10-10-10-10-10-10-8-8-8-8-8-8-8-8-8-8-8-8-8-8-8-8-|
D|-10-10-10-10-10-10-10-10--9--9--9--9--9--9--9--9-8-8-8-8-8-8-8-8-7-7-7-7-7-7-7-7-|

e|-----------------------------------------------------------------|
B|-----------------------------------------------------------------|
G|-----------------------------------------------------------------|
D|-6-6-6-6-6-6-6-6-5-5-5-5-5-5-5-5-3-3-3-3-3-3-3-3-3-3-3-3-3-3-3-3-|
A|-6-6-6-6-6-6-6-6-6-6-6-6-6-6-6-6-3-3-3-3-3-3-3-3-3-3-3-3-3-3-3-3-|
D|-6-6-6-6-6-6-6-6-5-5-5-5-5-5-5-5-3-3-3-3-3-3-3-3-3-3-3-3-3-3-3-3-|


OUTRO
e|-------------------------------------------------------------------------|
B|-------------------------------------------------------------------------|
G|-------------------------------------------------------------------------|
D|-6-6-6-6-6-6-6-6-9-9-9-9-9-9-9-9-5-5-5-5-5-5-5-5-10-10-10-10-10-10-10-10-|
A|-6-6-6-6-6-6-6-6-9-9-9-9-9-9-9-9-6-6-6-6-6-6-6-6-10-10-10-10-10-10-10-10-|
D|-6-6-6-6-6-6-6-6-9-9-9-9-9-9-9-9-5-5-5-5-5-5-5-5-10-10-10-10-10-10-10-10-|

e|-------------------------------------------------------------------------|
B|-------------------------------------------------------------------------|
G|-------------------------------------------------------------------------|
D|-6-6-6-6-6-6-6-6-9-9-9-9-9-9-9-9-5-5-5-5-5-5-5-5-10-10-10-10-10-10-10-10-|
A|-6-6-6-6-6-6-6-6-9-9-9-9-9-9-9-9-6-6-6-6-6-6-6-6-10-10-10-10-10-10-10-10-|
D|-6-6-6-6-6-6-6-6-9-9-9-9-9-9-9-9-5-5-5-5-5-5-5-5-10-10-10-10-10-10-10-10-|

e|-------------------------------------------------------------------------|
B|-------------------------------------------------------------------------|
G|-------------------------------------------------------------------------|
D|-6-6-6-6-6-6-6-6-9-9-9-9-9-9-9-9-5-5-5-5-5-5-5-5-10-10-10-10-10-10-10-10-|
A|-6-6-6-6-6-6-6-6-9-9-9-9-9-9-9-9-6-6-6-6-6-6-6-6-10-10-10-10-10-10-10-10-|
D|-6-6-6-6-6-6-6-6-9-9-9-9-9-9-9-9-5-5-5-5-5-5-5-5-10-10-10-10-10-10-10-10-|

e|-------------------------------------------------------------------------|
B|-------------------------------------------------------------------------|
G|-------------------------------------------------------------------------|
D|-6-6-6-6-6-6-6-6-9-9-9-9-9-9-9-9-5-5-5-5-5-5-5-5-10-10-10-10-10-10-10-10-|
A|-6-6-6-6-6-6-6-6-9-9-9-9-9-9-9-9-6-6-6-6-6-6-6-6-10-10-10-10-10-10-10-10-|
D|-6-6-6-6-6-6-6-6-9-9-9-9-9-9-9-9-5-5-5-5-5-5-5-5-10-10-10-10-10-10-10-10-|


************************************

| /   slide up
| \   slide down
| h   hammer-on
| p   pull-off
| ~   vibrato
| +   harmonic
| x   Mute note
| b   Bend
| pb  Pre-bend
| br  Bend release
| pbr Pre-bend release
| brb Bend release bend

************************************
Добавлено: 12.03.2016
Другие материалы по этой песне:
  • Аккорды и текст

Страница создана 12.03.2016
http://primanota.ru/woyh/afroditen-saarella-chords.htm
Привет, Гость.
Предлагаем пройти революционный курс по гитаре.
Подарок от PrimaNota.Ru, забирай!