PrimaNota.ru - самый крупный в мире бесплатный архив песенных текстов, аккордов, табулатур и нот


Wöyh - Aarteenryöstäjä - таба, видео

Регистрация Запомнить меня
Войти через:  Facebook Google Twitter Vk Yandex Mail.ru

Wöyh - Aarteenryöstäjä - таба, видео

Печатать
Просмотров: 39
-------------------------------------------------------------------------------
                           Wöyh! - Aarteenryöstäjä
-------------------------------------------------------------------------------

Tabbed by: myskimasa

Tuning: drop D

INTRO, VERSE, CHORUS
e|---------------------------------------------------------------------------|
B|---------------------------------------------------------------------------|
G|--4---4-4-------------4----------------------------------------------------|
D|--4---4-4---0---0-----4------2---2---2---2---2-0---0h2---2-----2-0---0-2---|
A|--2---0-2---0---0-----2------2---2---2---2---2-0---0h2---2-----2-0---0-2---|
D|------------0---0------------2---2---2---2---2-0---0h2---2-----2-0---0-2---|

PRE-CHORUS
e|---------------------------------------------------|
B|---------------------------------------------------|
G|---------------------------------------------------|
D|-5----5----5----5----5----5----5----5----5----5----|
A|-5----5----5----5----5----5----5----5----5----5----|
D|-5----5----5----5----5----5----5----5----5----5----|

e|---------------------------------------------------|
B|---------------------------------------------------|
G|---------------------------------------------------|
D|-5----5----5----5----5----4----4----4----4----4----|
A|-4----4----4----4----4----4----4----4----4----4----|
D|-5----5----5----5----5----4----4----4----4----4----|

BRIDGE
[gtr1]
e|----------------------------------------------------------|
B|----------------------------------------------------------|
G|----------------------------------------------------------|
D|-5---4---5---4---0------------5---4---5---4---0---------7-|
A|-3---3---3---3---3------------3---3---3---3---3---------5-|
D|----------------------------------------------------------|

e|----------------------------------------------------------|
B|----------------------------------------------------------|
G|-4---3---4---0----------------4---3---4---0---2---0-------|
D|-2---2---2---2----------------2---2---2---2---2---2-----0-|
A|--------------------------------------------------------0-|
D|----------------------------------------------------------|

[gtr2]
e|-----------------------------------------------------------|
B|-----------------------------------------------------------|
G|-----------------------------------------------------------|
D|-5-5-5-4-------5-5-5-4---4h5---5-5-5-4-------5-5-5-4---4h5-|
A|-----------5-----------------------------5-----------------|
D|-----------------------------------------------------------|

e|-----------------------------------------------------------|
B|-----------------------------------------------------------|
G|-----------------------------------------------------------|
D|-5-5-5-4-------5-5-5-4---4h5---5-5-5-4-------5-5-5-4---4h5-|
A|-----------5-----------------------------5-----------------|
D|-----------------------------------------------------------|

INTERLUDE
e|-----------------------------------------------------------------------------|
B|-----------------------------------------------------------------------------|
G|-----------------------------------------------------------------------------|
D|-5-------5-------5---4-------4-------4---------------------------------------|
A|-----------------------------------------7-------7-----7---5---2---5---2-5-0-|
D|-----2-------2-----2-----0-------0-----0-----5-------5---5-------------------|

e|-----------------------------------------------------------------------------|
B|-----------------------------------------------------------------------------|
G|-----------------------------------------4-------4-----4---4-------4-----4---|
D|-5-------5-------5---4-------4-------4---------------------------------------|
A|-----------------------------------------------------------------------------|
D|-----2-------2-----2-----0-------0-----0-----5-------5---5-----5-------5---5-|

e|-------------------------------------|
B|-------------------------------------|
G|-4-------4-----4---3-------3-----3---|
D|-------------------------------------|
A|-------------------------------------|
D|-----4-------4---4-----4-------4---4-|



************************************

| /   slide up
| \   slide down
| h   hammer-on
| p   pull-off
| ~   vibrato
| +   harmonic
| x   Mute note
| b   Bend
| pb  Pre-bend
| br  Bend release
| pbr Pre-bend release
| brb Bend release bend

************************************

Добавлено: 12.03.2016
Другие материалы по этой песне:
  • Аккорды и текст

Страница создана 12.03.2016
http://primanota.ru/woyh/aarteenryostaja-chords.htm
Привет, Гость.
Предлагаем пройти революционный курс по гитаре.
Подарок от PrimaNota.Ru, забирай!