PrimaNota.ru - самый крупный в мире бесплатный архив песенных текстов, аккордов, табулатур и нот


Wöyh - 3 - таба, видео

Регистрация Запомнить меня
Войти через:  Facebook Google Twitter Vk Yandex Mail.ru

Wöyh - 3 - таба, видео

Печатать
Просмотров: 100
Уроки эстрадного вокала в Санкт-Петербурге
-------------------------------------------------------------------------------
                                    Wöyh! - 3
-------------------------------------------------------------------------------

Tabbed by: myskimasa

Tuning: drop D

INTRO
e|-------------------------------------------------------------------------------------|
B|-------------------------------------------------------------------------------------|
G|-----------------------------------------------------2-------------------------------|
D|-3---------------2---------------3-------2-----------2-------------------------------|
A|-3---------------3---------------3-------3-----------0-------------------------------|
D|-3---------------2---------------3-------2-------------------------------------------|

e|-------------------------------------------------------------------------------------|
B|-------------------------------------------------------------------------------------|
G|-------------------------------------------------------------------------------------|
D|-3---------------2---------------3-------2-----------6-------------------------------|
A|-3---------------3---------------3-------3-----------6-------------------------------|
D|-3---------------2---------------3-------2-----------6-------------------------------|

VERSE 1
e|------------------------0---------------------------------------------------0--------|
B|------------------------4---------------------------------------------------6--------|
G|--------------2----------------------------------------------------4-----------------|
D|------1----------------------------------------------------3-------------------------|
A|--0-------0---------0----------------------------------2-------2---------2-----------|
D|-------------------------------------------------------------------------------------|

e|------------------------0---------------------------------------------------0--------|
B|------------------------4---------------------------------------------------6--------|
G|--------------2----------------------------------------------------4-----------------|
D|------1----------------------------------------------------3-------------------------|
A|--0-------0---------0----------------------------------2-------2---------2-----------|
D|-------------------------------------------------------------------------------------|

PRE-CHORUS
e|-------------------------------------------------------------|
B|-------------------------------------------------------------|
G|---------4-----4---------4-----4---------4-----4-------------|
D|---------4-----4---------4-----4---------4-----4-------------|
A|-2-2-2-2---2-2---2-2-2-2---2-2---2-2-2-2---2-2---2-2-2-2-----|
D|-------------------------------------------------------------|

VERSE 2
e|------------------------0---------------------------------------------------0--------|
B|------------------------4---------------------------------------------------6--------|
G|--------------2----------------------------------------------------4-----------------|
D|------1----------------------------------------------------3-------------------------|
A|--0-------0---------0----------------------------------2-------2---------2-----------|
D|-------------------------------------------------------------------------------------|

e|------------------------0---------------------------------------------------0--------|
B|------------------------4---------------------------------------------------6--------|
G|--------------2----------------------------------------------------4-----------------|
D|------1----------------------------------------------------3-------------------------|
A|--0-------0---------0----------------------------------2-------2---------2-----------|
D|-------------------------------------------------------------------------------------|

PRE-CHORUS
e|-----------------------------------------------------------------|
B|-----------------------------------------------------------------|
G|-----4---4-----4-----4---4-----4-----4---4-----4-----4---4-----4-|
D|-----4---4-----4-----4---4-----4-----4---4-----4-----4---4-----4-|
A|-2-2---2---2-2---2-2---2---2-2---2-2---2---2-2---2-2---2---2-2---|
D|-----------------------------------------------------------------|

e|-----------------------------------------------------------------|
B|-----------------------------------------------------------------|
G|-----4---4-----4-----4---4-----4-----4---4-----4-----------------|
D|-----4---4-----4-----4---4-----4-----4---4-----4-----------------|
A|-2-2---2---2-2---2-2---2---2-2---2-2---2---2-2-------------------|
D|-----------------------------------------------------------------|

CHORUS
e|-----------------------------------------------------|
B|-----------------------------------------------------|
G|-----------------------------------------------------|
D|-7-7-7-7-7-7-7-7-7-7-7-7-7-7-7-7-7-7-7-7-7-7-7-7-7-7-|
A|-8-8-8-8-8-8-8-8-7-7-7-7-7-7-7-7-8-8-8-8-7-7-7-7-7-7-|
D|-7-7-7-7-7-7-7-7-7-7-7-7-7-7-7-7-7-7-7-7-7-7-7-7-7-7-|

e|---------------------------------|
B|---------------------------------|
G|---------------------------------|
D|-3-3-3-3-3-3-3-3-3-3-3-3-3-3-3-3-|
A|-3-3-3-3-3-3-3-3-3-3-3-3-3-3-3-3-|
D|-3-3-3-3-3-3-3-3-3-3-3-3-3-3-3-3-|

e|-----------------------------------------------------|
B|-----------------------------------------------------|
G|-----------------------------------------------------|
D|-7-7-7-7-7-7-7-7-7-7-7-7-7-7-7-7-7-7-7-7-7-7-7-7-7-7-|
A|-8-8-8-8-8-8-8-8-7-7-7-7-7-7-7-7-8-8-8-8-7-7-7-7-7-7-|
D|-7-7-7-7-7-7-7-7-7-7-7-7-7-7-7-7-7-7-7-7-7-7-7-7-7-7-|

e|---------------------------------|
B|---------------------------------|
G|---------------------------------|
D|-3-3-3-3-3-3-3-3-3-3-3-3-3-3-3-3-|
A|-3-3-3-3-3-3-3-3-3-3-3-3-3-3-3-3-|
D|-3-3-3-3-3-3-3-3-3-3-3-3-3-3-3-3-|

e|-----------------------------------------------------|
B|-----------------------------------------------------|
G|-----------------------------------------------------|
D|-3-3-3-3-3-3-3-3-2-2-2-2-2-2-2-2-3-3-3-3-2-2-2-2-2-2-|
A|-3-3-3-3-3-3-3-3-3-3-3-3-3-3-3-3-3-3-3-3-3-3-3-3-3-3-|
D|-3-3-3-3-3-3-3-3-2-2-2-2-2-2-2-2-3-3-3-3-2-2-2-2-2-2-|

e|---------------------------------|
B|---------------------------------|
G|-2-2-2-2-2-2-2-2-2-2-2-2-2-2-2-2-|
D|-2-2-2-2-2-2-2-2-2-2-2-2-2-2-2-2-|
A|-0-0-0-0-0-0-0-0-0-0-0-0-0-0-0-0-|
D|---------------------------------|

e|-----------------------------------------------------|
B|-----------------------------------------------------|
G|-----------------------------------------------------|
D|-3-3-3-3-3-3-3-3-2-2-2-2-2-2-2-2-3-3-3-3-2-2-2-2-2-2-|
A|-3-3-3-3-3-3-3-3-3-3-3-3-3-3-3-3-3-3-3-3-3-3-3-3-3-3-|
D|-3-3-3-3-3-3-3-3-2-2-2-2-2-2-2-2-3-3-3-3-2-2-2-2-2-2-|

e|---------------------------------|
B|---------------------------------|
G|---------------------------------|
D|-6-6-6-6-6-6-6-6-6-6-6-6-6-6-6-6-|
A|-6-6-6-6-6-6-6-6-6-6-6-6-6-6-6-6-|
D|-6-6-6-6-6-6-6-6-6-6-6-6-6-6-6-6-|

VERSE 3
e|------------------------0---------------------------------------------------0--------|
B|------------------------4---------------------------------------------------6--------|
G|--------------2----------------------------------------------------4-----------------|
D|------1----------------------------------------------------3-------------------------|
A|--0-------0---------0----------------------------------2-------2---------2-----------|
D|-------------------------------------------------------------------------------------|

e|------------------------0---------------------------------------------------0--------|
B|------------------------4---------------------------------------------------6--------|
G|--------------2----------------------------------------------------4-----------------|
D|------1----------------------------------------------------3-------------------------|
A|--0-------0---------0----------------------------------2-------2---------2-----------|
D|-------------------------------------------------------------------------------------|

e|-------------------------------------------------------------------------------------|
B|-----------------------7-----------------------------------------------------8-------|
G|-------------6-----------------------------------------------------6-----------------|
D|-----5-----------------------------------------------------5-------------------------|
A|-4-------4---------4-----------------------------------4-------4---------4-----------|
D|-------------------------------------------------------------------------------------|

e|-------------------------------------------------------------------------------------|
B|-----------------------7-----------------------------------------------------5-------|
G|-------------6-----------------------------------------------------6-----------------|
D|-----5-----------------------------------------------------5-------------------------|
A|-4-------4---------4-----------------------------------4-------4---------4-----------|
D|-------------------------------------------------------------------------------------|

CHORUS
e|-----------------------------------------------------|
B|-----------------------------------------------------|
G|-----------------------------------------------------|
D|-7-7-7-7-7-7-7-7-7-7-7-7-7-7-7-7-7-7-7-7-7-7-7-7-7-7-|
A|-8-8-8-8-8-8-8-8-7-7-7-7-7-7-7-7-8-8-8-8-7-7-7-7-7-7-|
D|-7-7-7-7-7-7-7-7-7-7-7-7-7-7-7-7-7-7-7-7-7-7-7-7-7-7-|

e|---------------------------------|
B|---------------------------------|
G|---------------------------------|
D|-3-3-3-3-3-3-3-3-3-3-3-3-3-3-3-3-|
A|-3-3-3-3-3-3-3-3-3-3-3-3-3-3-3-3-|
D|-3-3-3-3-3-3-3-3-3-3-3-3-3-3-3-3-|

e|-----------------------------------------------------|
B|-----------------------------------------------------|
G|-----------------------------------------------------|
D|-7-7-7-7-7-7-7-7-7-7-7-7-7-7-7-7-7-7-7-7-7-7-7-7-7-7-|
A|-8-8-8-8-8-8-8-8-7-7-7-7-7-7-7-7-8-8-8-8-7-7-7-7-7-7-|
D|-7-7-7-7-7-7-7-7-7-7-7-7-7-7-7-7-7-7-7-7-7-7-7-7-7-7-|

e|---------------------------------|
B|---------------------------------|
G|---------------------------------|
D|-3-3-3-3-3-3-3-3-3-3-3-3-3-3-3-3-|
A|-3-3-3-3-3-3-3-3-3-3-3-3-3-3-3-3-|
D|-3-3-3-3-3-3-3-3-3-3-3-3-3-3-3-3-|

e|-----------------------------------------------------|
B|-----------------------------------------------------|
G|-----------------------------------------------------|
D|-3-3-3-3-3-3-3-3-2-2-2-2-2-2-2-2-3-3-3-3-2-2-2-2-2-2-|
A|-3-3-3-3-3-3-3-3-3-3-3-3-3-3-3-3-3-3-3-3-3-3-3-3-3-3-|
D|-3-3-3-3-3-3-3-3-2-2-2-2-2-2-2-2-3-3-3-3-2-2-2-2-2-2-|

e|---------------------------------|
B|---------------------------------|
G|-2-2-2-2-2-2-2-2-2-2-2-2-2-2-2-2-|
D|-2-2-2-2-2-2-2-2-2-2-2-2-2-2-2-2-|
A|-0-0-0-0-0-0-0-0-0-0-0-0-0-0-0-0-|
D|---------------------------------|

e|-----------------------------------------------------|
B|-----------------------------------------------------|
G|-----------------------------------------------------|
D|-3-3-3-3-3-3-3-3-2-2-2-2-2-2-2-2-3-3-3-3-2-2-2-2-2-2-|
A|-3-3-3-3-3-3-3-3-3-3-3-3-3-3-3-3-3-3-3-3-3-3-3-3-3-3-|
D|-3-3-3-3-3-3-3-3-2-2-2-2-2-2-2-2-3-3-3-3-2-2-2-2-2-2-|

e|---------------------------------|
B|---------------------------------|
G|---------------------------------|
D|-6-6-6-6-6-6-6-6-6-6-6-6-6-6-6-6-|
A|-6-6-6-6-6-6-6-6-6-6-6-6-6-6-6-6-|
D|-6-6-6-6-6-6-6-6-6-6-6-6-6-6-6-6-|

OUTRO
e|-------------------------------------------------------|
B|----------------------13-------------------------------|
G|------------11-----------------------------------------|
D|----10-------------------------------------------------|
A|-9-------9---------9-----------------------------------|
D|-------------------------------------------------------|

e|-------------------------------------------------------|
B|----------------------13-------------------------------|
G|------------11-----------------------------------------|
D|----10-------------------------------------------------|
A|-9-------9---------9-----------------------------------|
D|-------------------------------------------------------|


************************************

| /   slide up
| \   slide down
| h   hammer-on
| p   pull-off
| ~   vibrato
| +   harmonic
| x   Mute note
| b   Bend
| pb  Pre-bend
| br  Bend release
| pbr Pre-bend release
| brb Bend release bend

************************************

Добавлено: 12.03.2016
Другие материалы по этой песне:
  • Аккорды и текст

Страница создана 12.03.2016
http://primanota.ru/woyh/3-chords.htm
Привет, Гость.
Предлагаем пройти революционный курс по гитаре.
Подарок от PrimaNota.Ru, забирай!