PrimaNota.ru - самый крупный в мире бесплатный архив песенных текстов, аккордов, табулатур и нот


Wovenhand - Cohawkin Road - аккорды и текст, видео

Регистрация Запомнить меня
Войти через:  Facebook Google Twitter Vk Yandex Mail.ru

Wovenhand - Cohawkin Road - аккорды и текст, видео

Печатать
Просмотров: 78
Cohawkin Road
Wovenhand
Woven Hand - Cohawkin Road


Standard Tuning

Note: I play the F, Gm, A# and C chords here a little differently than usual, to 
get the same sound and feel of the song.
They are optional, but if you ask me, it sounds better with them.

Like this:

    F  G  Bb C
E|--x--x--x--x---|
B|--1--3--6--8---|
G|--x--0--0--0---|
D|--3--5--8--10--|
A|--3--5--8--10--|
E|--1--3--6--8---|

Intro: Gm Bb F

Gm               Bb
Hidden inside him
             F
Music in the dark
Gm              Bb
This conquering kindness
              C
To all in his quiver
Gm
Burdened hard
       Bb 
On the road
               F
By law all are wounded
             Gm
That you may know
Bb               F
You may know one another

Bridge:

    Gm         F  Gm                Dm
E|--x---x-x-------x-x-----x---x-x---1-1-1---|
B|--3---3-3-------3-3-----3---3-3---3-3-3---|
G|--0---0-0----x--0-0-----0---0-0---2-2-2---|
D|--5---5-5----3--5-5-----5---5-5---0-0-0---|
A|--5---5-5----3--5-5-----5---5-5-----------|
E|--3---3-3--0-1--3-3--0--3---3-3-----------|
    Gm         F  Gm
E|--x---x-x-------x-x-----x-----------------|
B|--3---3-3-------3-3-----3---3-3-----------|
G|--0---0-0----x--0-0-----0---0-0-----------|
D|--5---5-5----3--5-5-----5---5-5-----------|
A|--5---5-5----3--5-5-----5-----------------|
E
Добавлено: 11.05.2012
Другие материалы по этой песне:
  • Аккорды и текст

Страница создана 11.05.2012
http://primanota.ru/wovenhand/cohawkin-road-chords.htm
Привет, Гость.
Предлагаем пройти революционный курс по гитаре.
Подарок от PrimaNota.Ru, забирай!