PrimaNota.ru - самый крупный в мире бесплатный архив песенных текстов, аккордов, табулатур и нот


Worthwhile - Unlovable - таба, видео

Регистрация Запомнить меня
Войти через:  Facebook Google Twitter Vk Yandex Mail.ru

Worthwhile - Unlovable - таба, видео

Печатать
Просмотров: 111
-------------------------------------------------------------------------------
                             UNLOVABLE - Worthwhile
-------------------------------------------------------------------------------
Tabbed by: Chris Beevers
E-mail: beevers.tyler@gmail.com

Tuning: Standard

PLEASE READ HERE BEFORE ANYTHING!

This is my first tab EVER, also I just started to play guitar. What you see below is my
attempt on tabbing this song because no one else on the internet will. Yes, there will be
mistakes, I gave it my best shot. Feel FREE to email me any corrections.

|-----------------------|--------------------------------------|
|--3-----3--5-----5--6--|--3------3--5-----5-------1-----1--3--|
|-----------------------|--------------------------------------|
|-----3--------5--------|-----3---------5-------------3--------|
|--1-----1--3-----3--5--|--1------1--3-----3-------0-----0--1--|
|-----------------------|--------------------------------------|


|-----------------------|----------------------------------------------------------|
|--3-----3--5-----5--6--|--10-----10--8-----8--5-----5--6-----6--3-----3--6-----6--|
|-----------------------|----------------------------------------------------------|
|-----3--------5--------|-----10---------7--------5--------5--------3--------6-----|
|--1-----1--3-----3--5--|--8------8---7-----7--3-----3--5-----5--1-----1--4-----4--|
|-----------------------|----------------------------------------------------------|

|-------------|
|--2-----2--1-|
|-------------|
|-----2-------|
|--1-----1--1-|
|-------------|


************************************

| /   slide up
| \   slide down
| h   hammer-on
| p   pull-off
| ~   vibrato
| +   harmonic
| x   Mute note
| b   Bend
| pb  Pre-bend
| br  Bend release
| pbr Pre-bend release
| brb Bend release bend

************************************
Добавлено: 20.09.2015
Вам также может быть интересно:
Другие материалы по этой песне:
  • Аккорды и текст

Страница создана 20.09.2015
http://primanota.ru/worthwhile/unlovable-chords.htm
Привет, Гость.
Предлагаем пройти революционный курс по гитаре.
Подарок от PrimaNota.Ru, забирай!