PrimaNota.ru - самый крупный в мире бесплатный архив песенных текстов, аккордов, табулатур и нот


World Under Blood - Into The Arms Of Cruelty - таба, видео

Регистрация Запомнить меня
Войти через:  Facebook Google Twitter Vk Yandex Mail.ru

World Under Blood - Into The Arms Of Cruelty - таба, видео

Печатать
Просмотров: 50

  World Under Blood - Into The Arms Of Cruelty
  From the album "Tactical"
  Tabbed by Eric Jenssen
  http://www.youtube.com/user/campkillyourshelf

        Tuning: DGCFAD (whole step down)

  Tabbed while watching Deron Miller's "how to play"-video.
  This is only for Deron's guitar.
  This tab is not complete.

  0:00 INTRO
  0:34 BRIDGE 1
  0:55 INTRO
  1:28 BRIDGE 1
  1:49 BRIDGE 2
  2:06 CHORUS

  0:00 - 0:16
  INTRO

D|-----------------------------------------------------------|
A|-----------------------------------------------------------|
F|--4------2--------------------2----------------------------|
C|----------------5------2-------------5------2------5-------|
G|-----------------------------------------------------------|
D|----3333---3333---3333---3333---0000---0000---0000---0000--|
   PM:....   ....   ....   ....   ....   ....   ....   ....   

D|-----------------------------------------------------------|
A|-----------------------------------------------------------|
F|--5------4--------------------4----------------------------|
C|----------------7------5-------------7------5------2-------|
G|-----------------------------------------------------------|
D|----5555---5555---5555---5555---0000---0000---0000---0000--|
   PM:....   ....   ....   ....   ....   ....   ....   ....

D|-----------------------------------------------------------|
A|-----------------------------------------------------------|
F|--9------7-------------------------------------------------|
C|----------------10-----7------10-----9------7------5-------|
G|-----------------------------------------------------------|
D|----8888---8888---8888---8888---5555---5555---5555---5555--|
   PM:....   ....   ....   ....   ....   ....   ....   ....

D|-----------------------------------------------------------|
A|-----------------------------------------------------------|
F|--4------2--------------------2----------------------------|
C|----------------5------2-------------5------2------5-------|
G|-----------------------------------------------------------|
D|----3333---3333---3333---3333---0000---0000---0000---0000--|
   PM:....   ....   ....   ....   ....   ....   ....   ....  

  0:17 - 0:33
  Same thing one more time.

D|-----------------------------------------------------------|
A|-----------------------------------------------------------|
F|--4------2--------------------2----------------------------|
C|----------------5------2-------------5------2------5-------|
G|-----------------------------------------------------------|
D|----3333---3333---3333---3333---0000---0000---0000---0000--|
   PM:....   ....   ....   ....   ....   ....   ....   ....   

D|-----------------------------------------------------------|
A|-----------------------------------------------------------|
F|--5------4--------------------4----------------------------|
C|----------------7------5-------------7------5------2-------|
G|-----------------------------------------------------------|
D|----5555---5555---5555---5555---0000---0000---0000---0000--|
   PM:....   ....   ....   ....   ....   ....   ....   ....

D|-----------------------------------------------------------|
A|-----------------------------------------------------------|
F|--9------7-------------------------------------------------|
C|----------------10-----7------10-----9------7------5-------|
G|-----------------------------------------------------------|
D|----8888---8888---8888---8888---5555---5555---5555---5555--|
   PM:....   ....   ....   ....   ....   ....   ....   ....

D|-----------------------------------------------------------|
A|-----------------------------------------------------------|
F|--4------2--------------------2----------------------------|
C|----------------5------2-------------5------2------5-------|
G|-----------------------------------------------------------|
D|----3333---3333---3333---3333---0000---0000---0000---0000--|
   PM:....   ....   ....   ....   ....   ....   ....   ....  

  Then comes a part where you just have to listen to the song to understand.
  Here's a rough extract of how it goes.

  0:34 - 0:54
  BRIDGE 1
D|-----------------------------------------------------------|
A|-----------------------------------------------------------|
F|-----------------------------------------------------------|
C|------9--9------9--9------9--9------9------9------9--------|
G|-----10-10-----10-10-----10-10-----10-----10-----10--------|
D|--88--8--8--88--8--8--88--8--8--88--8--88--8--88--8--88----|
 PM:..        ..        ..        ..     ..     ..     ..

D|-----------------------------------------------------------|
A|-----------------------------------------------------------|
F|-----------------------------------------------------------|
C|------5-5------5-5------5-7------7------7------7-7---------|
G|------7-7------7-7------7-5------5------5------5-5---------|
D|--00--0-0--00--0-0--00--0-7--77--7--77--7--77--7-7---------|
 PM:..       ..       ..       ..     ..     ..

  And then you play the same thing over again, only this time you play the 2nd line twice.

D|-----------------------------------------------------------|
A|-----------------------------------------------------------|
F|-----------------------------------------------------------|
C|------9--9------9--9------9--9------9------9------9--------|
G|-----10-10-----10-10-----10-10-----10-----10-----10--------|
D|--88--8--8--88--8--8--88--8--8--88--8--88--8--88--8--88----|
 PM:..        ..        ..        ..     ..     ..     ..

D|-----------------------------------------------------------|
A|-----------------------------------------------------------|
F|-----------------------------------------------------------|
C|------5-5------5-5------5-7------7------7------7-7---------|
G|------7-7------7-7------7-5------5------5------5-5---------|
D|--00--0-0--00--0-0--00--0-7--77--7--77--7--77--7-7---------|
 PM:..       ..       ..       ..     ..     ..     

D|-----------------------------------------------------------|
A|-----------------------------------------------------------|
F|-----------------------------------------------------------|
C|------5-5------5-5------5-7------7------7------7-7---------|
G|------7-7------7-7------7-5------5------5------5-5---------|
D|--00--0-0--00--0-0--00--0-7--77--7--77--7--77--7-7---------|
 PM:..       ..       ..       ..     ..     ..     

  0:55 - 1:27
  INTRO twice.

D|-----------------------------------------------------------|
A|-----------------------------------------------------------|
F|--4------2--------------------2----------------------------|
C|----------------5------2-------------5------2------5-------|
G|-----------------------------------------------------------|
D|----3333---3333---3333---3333---0000---0000---0000---0000--|
   PM:....   ....   ....   ....   ....   ....   ....   ....   

D|-----------------------------------------------------------|
A|-----------------------------------------------------------|
F|--5------4--------------------4----------------------------|
C|----------------7------5-------------7------5------2-------|
G|-----------------------------------------------------------|
D|----5555---5555---5555---5555---0000---0000---0000---0000--|
   PM:....   ....   ....   ....   ....   ....   ....   ....

D|-----------------------------------------------------------|
A|-----------------------------------------------------------|
F|--9------7-------------------------------------------------|
C|----------------10-----7------10-----9------7------5-------|
G|-----------------------------------------------------------|
D|----8888---8888---8888---8888---5555---5555---5555---5555--|
   PM:....   ....   ....   ....   ....   ....   ....   ....

D|-----------------------------------------------------------|
A|-----------------------------------------------------------|
F|--4------2--------------------2----------------------------|
C|----------------5------2-------------5------2------5-------|
G|-----------------------------------------------------------|
D|----3333---3333---3333---3333---0000---0000---0000---0000--|
   PM:....   ....   ....   ....   ....   ....   ....   ....  

D|-----------------------------------------------------------|
A|-----------------------------------------------------------|
F|--4------2--------------------2----------------------------|
C|----------------5------2-------------5------2------5-------|
G|-----------------------------------------------------------|
D|----3333---3333---3333---3333---0000---0000---0000---0000--|
   PM:....   ....   ....   ....   ....   ....   ....   ....   

D|-----------------------------------------------------------|
A|-----------------------------------------------------------|
F|--5------4--------------------4----------------------------|
C|----------------7------5-------------7------5------2-------|
G|-----------------------------------------------------------|
D|----5555---5555---5555---5555---0000---0000---0000---0000--|
   PM:....   ....   ....   ....   ....   ....   ....   ....

D|-----------------------------------------------------------|
A|-----------------------------------------------------------|
F|--9------7-------------------------------------------------|
C|----------------10-----7------10-----9------7------5-------|
G|-----------------------------------------------------------|
D|----8888---8888---8888---8888---5555---5555---5555---5555--|
   PM:....   ....   ....   ....   ....   ....   ....   ....

D|-----------------------------------------------------------|
A|-----------------------------------------------------------|
F|--4------2--------------------2----------------------------|
C|----------------5------2-------------5------2------5-------|
G|-----------------------------------------------------------|
D|----3333---3333---3333---3333---0000---0000---0000---0000--|
   PM:....   ....   ....   ....   ....   ....   ....   ....  

  1:28 - 1:48
  BRIDGE 1

D|-----------------------------------------------------------|
A|-----------------------------------------------------------|
F|-----------------------------------------------------------|
C|------9--9------9--9------9--9------9------9------9--------|
G|-----10-10-----10-10-----10-10-----10-----10-----10--------|
D|--88--8--8--88--8--8--88--8--8--88--8--88--8--88--8--88----|
 PM:..        ..        ..        ..     ..     ..     ..

D|-----------------------------------------------------------|
A|-----------------------------------------------------------|
F|-----------------------------------------------------------|
C|------5-5------5-5------5-7------7------7------7-7---------|
G|------7-7------7-7------7-5------5------5------5-5---------|
D|--00--0-0--00--0-0--00--0-7--77--7--77--7--77--7-7---------|
 PM:..       ..       ..       ..     ..     ..

D|-----------------------------------------------------------|
A|-----------------------------------------------------------|
F|-----------------------------------------------------------|
C|------9--9------9--9------9--9------9------9------9--------|
G|-----10-10-----10-10-----10-10-----10-----10-----10--------|
D|--88--8--8--88--8--8--88--8--8--88--8--88--8--88--8--88----|
 PM:..        ..        ..        ..     ..     ..     ..

D|-----------------------------------------------------------|
A|-----------------------------------------------------------|
F|-----------------------------------------------------------|
C|------5-5------5-5------5-7------7------7------7-7---------|
G|------7-7------7-7------7-5------5------5------5-5---------|
D|--00--0-0--00--0-0--00--0-7--77--7--77--7--77--7-7---------|
 PM:..       ..       ..       ..     ..     ..

D|-----------------------------------------------------------|
A|-----------------------------------------------------------|
F|-----------------------------------------------------------|
C|------5-5------5-5------5-7------7------7------7-7---------|
G|------7-7------7-7------7-5------5------5------5-5---------|
D|--00--0-0--00--0-0--00--0-7--77--7--77--7--77--7-7---------|
 PM:..       ..       ..       ..     ..     ..



  I will complete this tab eventually. Please rate and leave som feedback, this took me a while.
Добавлено: 03.07.2013
Другие материалы по этой песне:

Страница создана 03.07.2013
http://primanota.ru/world-under-blood/into-the-arms-of-cruelty-chords.htm
Привет, Гость.
Предлагаем пройти революционный курс по гитаре.
Подарок от PrimaNota.Ru, забирай!