PrimaNota.ru - самый крупный в мире бесплатный архив песенных текстов, аккордов, табулатур и нот


The World Is A Beautiful Place - Wait What - таба, видео

Регистрация Запомнить меня
Войти через:  Facebook Google Twitter Vk Yandex Mail.ru

The World Is A Beautiful Place - Wait What - таба, видео

Печатать
Просмотров: 66
-------------------------------------------------------------------------------
 Wait, What? - The World is a Beautiful Place and I am No Longer Afraid to Die/Deer Leap
-------------------------------------------------------------------------------
Tabbed by: Rachel Bishop
E-mail: rrachelbishopp@gmail.com

Tuning:

e|------------------------------|
B|-------10---------------------|
G|----7-----7---7-----------7---| X3
D|--9---------9----10--9--7-----|
A|------------------------------|
E|------------------------------|

e|----------------------------------------------------------------------------------------------|
B|-------10-------------------------------------------------------------------------------------|
G|----7-----7----7--9--7----7-----------------------------9--7-----7----------------------------|
D|--9---------9----------10----9-9-9-9-9-9-9-9-9-9-9-9-9--------10----9-9-9-9-9-9-9-9-9-9-9-9-9-|
A|----------------------------------------------------------------------------------------------|
E|----------------------------------------------------------------------------------------------|

I'll post the rest as I learn it
************************************

| /   slide up
| \   slide down
| h   hammer-on
| p   pull-off
| ~   vibrato
| +   harmonic
| x   Mute note
| b   Bend
| pb  Pre-bend
| br  Bend release
| pbr Pre-bend release
| brb Bend release bend

************************************
Добавлено: 08.12.2015
Другие материалы по этой песне:
  • Аккорды и текст

Страница создана 08.12.2015
http://primanota.ru/world-is-a-beautiful-place/wait-what-chords.htm
Привет, Гость.
Предлагаем пройти революционный курс по гитаре.
Подарок от PrimaNota.Ru, забирай!