PrimaNota.ru - самый крупный в мире бесплатный архив песенных текстов, аккордов, табулатур и нот


Woods Of Birnam - Ill Call Thee Hamlet - аккорды и текст, видео

Регистрация Запомнить меня
Войти через:  Facebook Google Twitter Vk Yandex Mail.ru

Woods Of Birnam - Ill Call Thee Hamlet - аккорды и текст, видео

Печатать
Просмотров: 229
Ill Call Thee Hamlet
Woods Of Birnam
Capo: 4th 


 Em7   Em*
e-0-   -0-
B-3-   -0-
G-0-   -0-
D-2-   -0- 
A-2-   -2-
E-0-   -0-

Hi, I know it isn't a 100 percent right especially in the picking part, but I tried my best. 
Hope you enjoy it :) 



Verse:
C                                    Em       F 
Angels and ministers of grace defend us! 
C                                      Em     F
Be thou a spirit of health or goblin damn'd 
C             
Bring with thee airs from heaven or blasts from hell 
Em                         F
Be thy intents wicked or charitable 
C                                    Em      F 
Thou com'st in such a questionable shape 

                                 (one strum)
C                                    Em      C
That I will speak to thee - speak to thee - speak to thee 

Speak to thee - speak to thee 



Chorus:
C         Am       Em    Em7
I'll call thee Hamlet 
C          Am      Em   Em*    C        Em     F
I'll call thee Hamlet,       o answer me 


Verse:
C                                Em          F
It will not speak, then I will follow it - follow it 
C                                 Em    F
I do not set my life at a pin ́s fee 
C                                      
And for my soul, what can it do to that 
Em                      F
And for my soul, what can it do to that 
C                             Em   F
Being a thing immortal as itself 
            
C                                                  Em (one strum)
It waves me forth again - forth again - forth again 
C              
I'll follow it - (I'll) follow it - (I'll) follow it 


Chorus: 
C          Am      Em   Em7 
I'll call thee Hamlet 
C          Am     Em   Em*
I'll call thee Hamlet 
C           Am       Em Em7  C            Am      Em Em*
King, father, royal Dane / king, father, royal Dane 


     O answer me                               C    O     answer         me                        
e|-------------------------------------------------------------------------------------------|
B|--------0-------0----------0-----------0-------------1-------------------------------------|
G|------2-------2---2------2-----2-----2---2--------0----0-------0-------0-------------------|
D|----3-------3----------3-----------3-----------2------------2-------0----------------------|
A|--0-------0---------------------------------3------------3-------2-------------------------|
E|--------------------3------------3---------------------------------------------------------|

   F
e|--------------------------------------0----------------------------------------------------|
B|-----------1------------1-----------0----0--------3-0----------1---------------------------|
G|--------2----2--------2---2-------------------0-------------0---0-----0-----0--------------|
D|-----3-------------3-------------2----------2------------2----------2-----0----------------|
A|-------------------------------2----------2-----------3-----------3-----2------------------|
E|--1-------------1--------------------------------------------------------------------------|

e|-------------------------------------------------------------------------------------------|
e|----------1-------------1------------0----0------------------------------------------------|
e|--------2---2--------2----2--------0------0------------------------------------------------|
e|-----3------------3--------------2--------0------------------------------------------------|
e|-------------------------------------------------------------------------------------------|
e|--1------------1--------------0-----------0------------------------------------------------|

(Mute)

C                Am        Em
What may this mean, that thou 
C                            Am                
Dead corse, again in complete steel 
Em
Revisits thus the glimpses of the moon 
C                  Am              Em
Making night hideous, making night hideous 
C                           Am                     Em
And we fools of nature so horridly to shake our disposition - our disposition 
C                                        Em
With thoughts beyond the reaches of our souls? 
C                                       Em 
With thoughts beyond the reaches of our souls?
C                                           Am      Em
Say why is this?  say why is this? say why is this? wherefore? 
C                                          Am        Em
Say why is this? say why is this? say why is this? wherefore? 

(Open)
C    Am    Em    Em7


Chorus:
C           Am       Em   Em7
I'll call thee Hamlet 
C           Am       Em   Em*
I'll call thee Hamlet 
C           Am      Em Em7   C         Am       Em  Em7   Em   Em*
King, father, royal Dane / king, father, royal Dane
Добавлено: 30.07.2015
Вам также может быть интересно:
Другие материалы по этой песне:
  • Аккорды и текст

Страница создана 30.07.2015
http://primanota.ru/woods-of-birnam/ill-call-thee-hamlet-chords.htm
Привет, Гость.
Предлагаем пройти революционный курс по гитаре.
Подарок от PrimaNota.Ru, забирай!