PrimaNota.ru - самый крупный в мире бесплатный архив песенных текстов, аккордов, табулатур и нот


Woods Of Birnam - The Healer - таба, видео

Регистрация Запомнить меня
Войти через:  Facebook Google Twitter Vk Yandex Mail.ru

Woods Of Birnam - The Healer - таба, видео

Печатать
Просмотров: 80
Уроки эстрадного вокала в Санкт-Петербурге
-------------------------------------------------------------------------------
                The Healer - Woods Of Birnam
-------------------------------------------------------------------------------
Tabbed by: cookietar

Tuning: Standart (Capo +2)

Intro:
e|-----0--|
B|-----0--|
G|-----0--|   x8
D|-----2--|
A|-2-2----|
E|--------|

Verse 1:
e|-----0-----0-----0-----0-----0-----0-----0-----0--|
B|-----0-----0-----0-----0-----0-----0-----0-----0--| 
G|-----0-----0-----0-----0-----0-----0-----0-----0--|   x4 (Riff1)
D|-----2-----2-----2-----2-----2-----2-----2-----2--|
A|-2-2---2-2---1-1---1-1---0-0---0-0----------------|
E|-------------------------------------0-0---0-0----|
 stay ‚till I know, ‚till you show, who is the leader 
 please let me cope, give me hope, I shall receive 
 why would I sway, should I play, the roman heathen 
 fall on my sword, so you know, that I believe

Pre-Chorus 1:         *(      )
e|---0---0---0---0- ---0---0---0---0-              *(--------0-|
B|---0---0---0---0- ---0---0---0---0-               (--------0-|
G|---0---0---0---0- ---0---0---0---0-   x2 (Riff2)  (--------0-|
D|---2---2---2---2- ---2---2---2---2-               (--------2-|
A|----------------- -----------------               (----------|
E|-0---2---3---5--- -0---2---3---2---               (-0.-0-2---|
I will follow you through deserts,(I will) follow through the snow 
I am dancing madly sideways,      I am falling in slow-mo 

Chorus 1:
e|-----0-----0-  -----0-|
B|-----0-----0-  -----0-|
G|-----0-----0-  -----0-|   x6
D|-----2-----2-  -----2-|
A|-4-4---4-4---  -------|
E|-------------  -0-0---|
although you know, I won't let go 


Verse 2:
e|-----0-----0-----0-----0-----0-----0-----0-----0--|
B|-----0-----0-----0-----0-----0-----0-----0-----0--| 
G|-----0-----0-----0-----0-----0-----0-----0-----0--|   x2 (Riff1)
D|-----2-----2-----2-----2-----2-----2-----2-----2--|
A|-2-2---2-2---1-1---1-1---0-0---0-0----------------|
E|-------------------------------------0-0---0-0----|
and still I grow, and I know, there is a healer all, 
saints and scum, come undone, I am his son 


Pre-Chorus 2:         *(      )
e|---0---0---0---0- ---0---0---0---0-              *(--------0-|
B|---0---0---0---0- ---0---0---0---0-               (--------0-|
G|---0---0---0---0- ---0---0---0---0-   x2 (Riff2)  (--------0-|
D|---2---2---2---2- ---2---2---2---2-               (--------2-|
A|----------------- -----------------               (----------|
E|-0---2---3---5--- -0---2---3---2---               (-0.-0-2---|
I will bless you in the desert, I will bless you in the snow 
you'll be dancing madly sideways,I will send you down below 


Chorus 2:
e|-----0-----0-----0-----0-               ->(-----0-|
B|-----0-----0-----0-----0-                 (-----0-|
G|-----0-----0-----0-----0-   x2 (Riff3)    (-----0-|   
D|-----2-----2-----2-----2-                 (-----2-|
A|-0-0---0-0---3-3---3-3---                 (-0-0---|
E|-------------------------                 (-------|
until I know, you can let go 
the time has come for healers, the time has come for us ->

e|-----0-|
B|-----0-|
G|-----0-|   
D|-----2-|
A|-------|
E|-0-0---|
until I know, you can let go 
the time has come for healers, the time has come for what?
Добавлено: 01.01.2016
Вам также может быть интересно:
Другие материалы по этой песне:
  • Аккорды и текст

Страница создана 01.01.2016
http://primanota.ru/woods-of-birnam/healer-chords.htm
Привет, Гость.
Предлагаем пройти революционный курс по гитаре.
Подарок от PrimaNota.Ru, забирай!