PrimaNota.ru - самый крупный в мире бесплатный архив песенных текстов, аккордов, табулатур и нот


Woodlock - Sirens - таба, видео

Регистрация Запомнить меня
Войти через:  Facebook Google Twitter Vk Yandex Mail.ru

Woodlock - Sirens - таба, видео

Печатать
Просмотров: 104
-------------------------------------------------------------------------------
                             Sirens - Woodlock
-------------------------------------------------------------------------------
Tabbed by:SgtAwesome
E-mail:porohipro@gmail.com

Tuning:Standard

F#  -  G#m  -  C#2  -  B2

Riff 1
e|---14----14-----------------11---------------------------------------------|
B|------------------14----------------11-------------------------------------|
G|---------------------------------------------------------------------------|
D|---------------------------------------------------------------------------|
A|---------------------------------------------------------------------------|
E|---------------------------------------------------------------------------|

Riff 2
e|-----------------------------------------------9---------------------------|
B|----9-----11-----11h14---------------9/11------------11\9------------------|
G|----------------------------10--------------------------------8------------|
D|---------------------------------------------------------------------------|
A|---------------------------------------------------------------------------|
E|---------------------------------------------------------------------------|

e|---------------9-------------------------------|
B|----9/11--------------11\9---------------------|
G|---------------------------------8-------------|
D|-----------------------------------------------|
A|-----------------------------------------------|
E|-----------------------------------------------|

Verse:

F#
Get in, the water's cold now darlin'
G#m
I can feel the water fold my skin
C#2                              B2
and every siren when silent in my head.
F#
Take a breath, let us turn to way home
G#m
keep her hands pressed out against your chest
C#2                              B2
and every siren went silent in my head. Oh the sirens.


Chorus:

F#                  C#2
Nowhere, I'm going nowhere.
B2
Nowhere, I'm going nowhere.



Verse:

F#
Open out steamin' life for the first time,
G#m
spread your limbs cold flush through the chest.
C#2                                   B2
And from the silence came sirens in my head.
F#
Lift her head to pierce the sighing edge,
G#m
press your feet, the stones begin to spead
C#2                                   B2
And from the silence came sirens in my head. Oh the sirens.


Chorus:

F#                   C#2
Nowhere, I'm going nowhere.
B2
Nowhere, I'm going nowhere.


Bridge:

              F#
They say the work is hard,
                 G#m
and we're not getting younger.
               C#2
Even when the last wind blows,
           B2
even as a high winds blow.
              F#
They say the work is hard,
                G#m
and we're not getting younger,
              B2
even as I'm lost and lone,
           B2
even as a high winds blow.

           F#          
I'm going nowhere (even as a last winds blows).
           G#m
I'm going nowhere(even as the sirens blow).
           B2                         
I'm going nowhere (even as the curtains close).
           B2
I'm going nowhere
           F#
I'm going nowhere.
           G#m
I'm going nowhere.
           B2
I'm going nowhere.
           B2
I'm going nowhere.
          F#          
I'm going nowhere (even as a last winds blows).
           G#m
I'm going nowhere(even as the sirens blow).
           B2                        
I'm going nowhere (even as the curtains close).
           B2
I'm going nowhere          
           F#          
I'm going nowhere (even as a last winds blows).
           G#m
I'm going nowhere(even as the sirens blow).
           B2                         
I'm going nowhere (even as the curtains close).
           B2
I'm going nowhere




************************************

| /   slide up
| \   slide down
| h   hammer-on
| p   pull-off
| ~   vibrato
| +   harmonic
| x   Mute note
| b   Bend
| pb  Pre-bend
| br  Bend release
| pbr Pre-bend release
| brb Bend release bend

************************************
Добавлено: 08.06.2016
Вам также может быть интересно:
Другие материалы по этой песне:
  • Аккорды и текст

Страница создана 08.06.2016
http://primanota.ru/woodlock/sirens-chords.htm
Привет, Гость.
Предлагаем пройти революционный курс по гитаре.
Подарок от PrimaNota.Ru, забирай!