PrimaNota.ru - самый крупный в мире бесплатный архив песенных текстов, аккордов, табулатур и нот


Woodlock - The Garden - таба, видео

Регистрация Запомнить меня
Войти через:  Facebook Google Twitter Vk Yandex Mail.ru

Woodlock - The Garden - таба, видео

Печатать
Просмотров: 152
-------------------------------------------------------------------------------
                           The Garden - Woodlock
-------------------------------------------------------------------------------
Tabbed by:backspace1
E-mail:backspacev9@gmail.com

Tuning:standard

hope its right. Tell me if something wrong

intro/verse
00-0:25
e-------------------------------------|
b-------------------------------------|
g---4-4-4-4-4-4-4-4\7-7-7-7--4-4-4-4--|-x4
d--2-2-2-2-2-2-2-2--------------------|
a-------------------------------------|
E------------------8-8-8-8--3-3-3-3---|

chorus1
0:25-0:40
e----------------------------------------|
b----------------------------------------|
g----------------------------------------|-x2
d---5-5-5-5--5-5-5-5--5-5-5-5--5-5-5-5---|
a--5-5-5-5--7-7-7-7----------------------|
E--------------------3-3-3-3--5-5-5-5----|

Interlude
0:40-0:52
e---------------------------------------|
b--8-7-3------3------3------------------|
g---------------------------------------|-x2
d--------5-5----5-5---------------------|
a---------5-5----5-5--------------------|
E---------------------------------------|

Verse x2 0:52-1:05

Chorus2
1:05-1:29

e-----------------------------|
b--------------------3----3---|
g-------7-----7---------------|-x2
d---5-5---5-5----5-5---5-5----|
a--5-5---7-7------------------|
E---------------3-3---5-5-----|

e--------------------------------------------------|
b--3--3--3--3--3------3--3--3--3--3--3--3--3-------|
g--------------------------------------------------|-x2
d---5--5--5--5--5------5--5--5--5--5--5--5--5------|
a----5--5--5--5--5------5--5--5--5--5--5--5--5-----|
E--------------------------------------------------|

Interlude x4 1:31-1:56

Verse x2 1:57-2:09

Chorus 3
2:09-2:32
e-----------------------------|
b--------------------3----3---|
g-------7-----7---------------|-x3
d---5-5---5-5----5-5---5-5----|
a--5-5---7-7------------------|
E---------------3-3---5-5-----|

e---------------------------|
b--3--3--3--3--3--3---------|
g---------------------------|
d---5--5--5--5--5--5--------|
a----5--5--5--5--5--5-------|
E---------------------------|

Interlude2
2:35-3:00

e---------------------------------------|
b--8-7-3------3------3------------------|
g---------------------------------------|
d--------5-5----5-5---------------------|
a---------5-5----5-5--------------------|
E---------------------------------------|

e---------------------------------------|
b--3-7-3-------3--3--3------------------|
g---------------------------------------|
d--------5-5----5--5--------------------|
a---------5-5----5--5-------------------|
E---------------------------------------|

e---------------------------------------|
b--8-7-3------3------3------------------|
g---------------------------------------|x2
d--------5-5----5-5---------------------|
a---------5-5----5-5--------------------|
E---------------------------------------|

Chorus 4 3:00

e----------------------------------------|
b----------------------------------------|
g----------------------------------------|-x2
d---5-5-5-5--5-5-5-5--5-5-5-5--5-5-5-5---|
a--5-5-5-5--7-7-7-7----------------------|
E--------------------3-3-3-3--5-5-5-5----|

e-------------------------------------------------|
b--------------------3------------3--3--3--3------|
g-------7-----7-----------------------------------|
d---5-5---5-5----5-5---5-5-5-5-----5--5--5--5-----|
a--5-5---7-7------------------------5--5--5--5----|
E---------------3-3---5-5-5-5---------------------|


************************************

| /   slide up
| \   slide down
| h   hammer-on
| p   pull-off
| ~   vibrato
| +   harmonic
| x   Mute note
| b   Bend
| pb  Pre-bend
| br  Bend release
| pbr Pre-bend release
| brb Bend release bend

************************************
Добавлено: 08.06.2016
Другие материалы по этой песне:
  • Аккорды и текст

Страница создана 08.06.2016
http://primanota.ru/woodlock/garden-chords.htm
Привет, Гость.
Предлагаем пройти революционный курс по гитаре.
Подарок от PrimaNota.Ru, забирай!