PrimaNota.ru - самый крупный в мире бесплатный архив песенных текстов, аккордов, табулатур и нот


Women - Shaking Hand - таба, видео

Регистрация Запомнить меня
Войти через:  Facebook Google Twitter Vk Yandex Mail.ru

Women - Shaking Hand - таба, видео

Печатать
Просмотров: 102
**NOTE: This tab has been reformatted to fit Ultimate-Guitar's size standards. To 
view it in its intended format, please visit my blog.**

---------------------------------
SHAKING HAND - Women - from WOMEN
---------------------------------

Tabbed by: Kris Ellestad
Date: September 22nd, 2009
Re-formatted: November 20th, 2009
Email: knilstad@gmail.com
Site: knilstad.blogspot.com

| h  hammer-on
| p  pull-off
| s or ss  slide
| //  tremolo
| R  let ring
| a--a or e--e etc.  16th divided into two 32nd notes  


   GUITAR 1 (LEFT) [0:00-0:22]

      1  e  &  a  2  e  &  a  3  e--e  &  a  4  e  &  a--a    
   e|-------10----------10---------------------------------|
   B|-------13----------13---------------------------------|
 m G|-------12----------12---------------------------------|
 1 D|-------------------------10h12p10----9--10-12-10-9ss7-|
   A|----------------------------------12------------------|
   E|------------------------------------------------------|

      1  e  &  a  2  e  &  a  3  e  &  a  4
   e|---------------------------------------|
   B|----7-----------7-----------7----------|
 m G|---------------------------------------|
 2 D|----7-----------7-----------7----------|
   A|-10----------10----------10------------|
   E|---------------------------------------|

      1  e  &  a  2  e  &  a  3  e--e  &  a  4  e  &  a--a
   e|-------10----------10---------------------------------|
   B|-------13----------13---------------------------------|
 m G|-------12----------12---------------------------------|
 3 D|-------------------------10h12p10----9--10-12-10-9ss7-|
   A|----------------------------------12------------------|
   E|-12-12------------------------------------------------|

      1  e  &  a  2  e  &  a  3  e  &  a  4
   e|---------------------------------------|
   B|----7-----------7-----0-----0-----0----|
 m G|---------------------------------------|
 4 D|----7-----------7--7----(7)---(7)------|
   A|-10----------10----------10------------|
   E|---------------------------------------|

      1  e  &  a  2  e  &  a  3  e--e  &  a  4  e  &  a--a
   e|-------10----------10---------------------------------|
   B|-------13----------13---------------------------------|
 m G|-------12----------12---------------------------------|
 5 D|-------------------------10h12p10----9--10-12-10-9ss7-|
   A|----------------------------------12------------------|
   E|-12-12------------------------------------------------|

      1  e  &  a  2  e  &  a  3  e  &  a  4
   e|---------------------------------------|
   B|----7-----------7-----------7----------|
 m G|---------------------------------------|
 6 D|----7-----------7-----------7----------|
   A|-10----------10----------10------------|
   E|---------------------------------------|

      1  e  &  a  2  e  &  a  3  e--e  &  a  4  e  &  a--a
   e|-------10----------10---------------------------------|
   B|-------13----------13---------------------------------|
 m G|-------12----------12---------------------------------|
 7 D|-------------------------10h12p10----9--10-12-10-9ss7-|
   A|----------------------------------12------------------|
   E|-12-12------------------------------------------------|

      1  e  &  a  2  e  &  a  3  e  &  a  4 
   e|---------------------------------------|
   B|----7-----------7-----0-----0-----0----|
 m G|---------------------------------------|
 8 D|-------7-----------7----(7)---(7)------|
   A|-10----------10------------------------|
   E|---------------------------------------|

      1  e  &  a  2  e  &  a  3  e--e  &  a  4  e  &  a 
   e|-------10----------10------------------------------|
   B|-------13----------13------------------------------|
 m G|-------12----------12------------------------------|
 9 D|-------------------------10h12p10----9--10-12-10-9-|
   A|----------------------------------12---------------|
   E|-12-12---------------------------------------------|


   GUITAR 2 (RIGHT) [0:00-0:22]

 m1-2 silent

        1  e  &  a  2  e  &  a  3  e  &  a  4  e  &  a
   e||-------------------------------------------------|
   B||-------------------------------------------------|
 m G|*----------12----------12----------12-------12----|
 3 D|*----9-----------9-----------9-----------10-------|
   A||-------9-----------9-----------9-----12-------10-|
   E||-12----------12----------10----------------------|

      1  e  &  a  2  e  &  a  3  e  &  a  4
   e|----------------------------------------||
   B|-------10----------10----------10-------||
 m G|-11----------11----------11----------11-*|   REPEAT
 4 D|----9-----------9-----------9-----------*|   3 TIMES (m3-m8)
   A|----------10----------10----------10----||
   E|----------------------------------------||

      1  e  &  a  2  e  &  a  3  e  &  a  4  e  &  a
   e|-------------------------------------------------|
   B|-------------------------------------------------|
 m G|----------12----------12----------12-------12-14-|
 9 D|----9-----------9-----------9-----------10-------|
   A|-------9-----------9-----------9-----12----------|
   E|-12----------12----------10----------------------|


   GUITAR 1 [0:22-0:33]

      1   &   2   &   3   &   4   &     1   &   2   &   3   &   4   &  
   e|---------------------------------|-10----------------------10----|
   B|-------------------------10------|-10--------------10------10----|
 m G|-13----------------------11------|-11--------------11------11----|
 1 D|-14----------------------11------|-12--------------11------12----|
 0 A|-14----------------------9-------|-12--------------9-------12----|
   E|-12------------------------------|-10----------------------10----|

      1   &   2   &   3   &   4   &     1   &   2   &   3   &   4   &  5
   e|---------------------------------|-10--------------------------------|
   B|-12--12------------------10------|-10--------------10-------------12-|
 m G|-13--13------------------11------|-11--------------11------11-----13-|
 1 D|-13--14------------------11------|-12--------------11------12-----13-|
 2 A|-11--14------------------9-------|-12--------------9-------12-----11-|
   E|-----12--------------------------|-10----------------------10--------|


   GUITAR 2 [0:22-0:33]

      1   &   2   &   3   &   4   &     1   &   2   &   3   &   4   &  
   e|-------------------------5-------|-----------------5---------------|
   B|-9-----------------------7-------|-7---------------7-------7-------|
 m G|-9-----------------------6-------|-7---------------6-------7-------|
 1 D|-9-----------------------4-------|-7---------------4-------7-------|
 0 A|-7-------------------------------|-5-----------------------5-------|
   E|---------------------------------|---------------------------------|

      1   &   2   &   3   &   4   &     1   &   2   &   3   &   4   &  5
   e|-7-----------------------5-------|-----------------5--------------7-|
   B|-9---9-------------------7-------|-7---------------7-------7------9-|
 m G|-8---9-------------------6-------|-7---------------6-------7------8-|
 1 D|-6---9-------------------4-------|-7---------------4-------7------6-|
 2 A|-----7---------------------------|-5-----------------------5--------|
   E|---------------------------------|----------------------------------|


   GUITAR 1 [0:33-0:39]

      1  e  &  a  2  e  &  a  3  e  &  a  4  e  &  a 
   e|------------------------------------------------|
   B|------------------------------------------------|
 m G|------------------------------------------------|
 1 D|----------13-13-------13-13----13-------13------|
 4 A|----------12-12-------12-12----12-------12------|
   E|------------------------------------------------|

   e|------------------------------------------------|
   B|------------------------------------------------|
 m G|------------------------------------------------|
 1 D|-13----13-13-------13----13----13---------------|
 5 A|-12----12-12-------12----12----12---------------|
   E|------------------------------------------------|


   GUITAR 2 [0:33-0:39]

      1  &  2  &  3  &  4  &    1  &  2  &  3  &  4  &
   e|-------------------------|-------------------------|
   B|-------------------------|-------------------------|
 m G|----//-//-//-//-//-//-//-|-//-//-//-//-//-//-//-//-|
 1 D|----11-11-11-11-11-11-11-|-11-11-11-11-11-11-11-11-|
 4 A|----12-12-12-12-12-12-12-|-12-12-12-12-12-12-12-12-|
   E|-------------------------|-------------------------|


   GUITAR 1 [0:39-0:58]

      1  e  &  a  2  e  &  a  3  e  &  a  4  e  &  a
   e|-------------------------------------------------|
   B|-------------------------------------------------|
 m G|-------------------------------------------------|
 1 D|-------------------------------------------------|
 6 A|-11-11-11-11-11-11-11-11-11-11-11-11-11-11-11-11-|
   E|-------------------------------------------------|
      1  e  &  a  2  e  &  a  3  e  &  a  4  e  &  a 
   e|-------------------------------------------------|
   B|-------------------------------------------------|
 m G|-------------------------------------------------|
 1 D|-------------------------------------------------|
 7 A|-11-11-11-11-11-11-11-11-11-11-11-11-11-11-11-11-|
   E|-------------------------------------------------|

      1  e  &  a  2  e  &  a  3  e  &  a  4  e  &  a
   e|-------------------------------------------------|
   B|-------------------------------------------------|
 m G|-------------------------------------------------|
 1 D|-------------------------------------------------|
 8 A|-11-11-11-11-11-11-11-12-9--9--9--9--9--9--9--9--|
   E|-------------------------------------------------|

      1  e  &  a  2  e  &  a  3  e  &  a  4  e  &  a 
   e|-------------------------------------------------|
   B|-------------------------------------------------|
 m G|-------------------------------------------------|
 1 D|-------------------------------------------------|
 9 A|-9--9--9--9--9--9--9--9--9--9--9--9--9--9--9--9--|
   E|-------------------------------------------------|

      1  e  &  a  2  e  &  a  3  e  &  a  4  e  &  a
   e|-------------------------------------------------|
   B|-------------------------------------------------|
 m G|-------------------------------------------------|
 2 D|-------------------------------------------------|
 0 A|-9--9--9--9--12-12-12-12-12-12-12-12-12-12-12-12-|
   E|-------------------------------------------------|

      1  e  &  a  2  e  &  a  3  e  &  a  4  e  &  a 
   e|-------------------------------------------------|
   B|-------------------------------------------------|
 m G|-------------------------------------------------|
 2 D|-------------------------------------------------|
 1 A|-12-12-12-12-12-12-12-12-12-12-12-12-12-12-12-12-|
   E|-------------------------------------------------|

      1  e  &  a  2  e  &  a  3  e  &  a  4  e  &  a
   e|-------------------------------------------------|
   B|-------------------------------------------------|
 m G|-------------------------------------------------|
 2 D|-------------------------------------------------|
 2 A|-12-12-12-12-12-12-12-12-12-12-12-12-12-12-12-12-|
   E|-------------------------------------------------|


   GUITAR 2 [0:39-0:58]

       1  e  &  a  2  e  &  a  3  e  &  a  4  e  &  a
   e||-------------------------------------------------||
   B||-------------------------------------------------||
 m G|*-------------------------------------------------*|   REPEAT
 1 D|*-------------------------------------------------*|   7 TIMES (m16-m22)
 6 A||-11-11-11-11-11-11-11-11-11-11-11-11-11-11-11-11-||
   E||-------------------------------------------------||


   GUITARS 1 & 2 [0:58-1:08]

        1  e  &  a  2  e  &  a  3  e  &  a  4  e  &  a
   e||--------------------------------------------------|
   B||--------------------------------------------------|
 m G||*----------12----------12----------12-------12----|
 2 D||*----9-----------9-----------9-----------10-------|
 3 A||--------9-----------9-----------9-----12-------10-|
   E||--12----------12----------10----------------------|

      1  e  &  a  2  e  &  a  3  e  &  a  4
   e|-----------------------------------------||
   B|-------10----------10----------10--------||
 m G|-11----------11----------11----------11-*||   (m23-26)
 2 D|----9-----------9-----------9-----------*||
 4 A|----------10----------10----------10-----||
   E|-----------------------------------------||

   
   GUITAR 1 [1:08-1:18]

      1  e  &  a  2  e  &  a  3  e--e  &  a  4  e  &  a--a    
   e|-------10----------10---------------------------------|
   B|-------13----------13---------------------------------|
 m G|-------12----------12---------------------------------|
 2 D|-------------------------10h12p10----9--10-12-10-9ss7-|
 7 A|----------------------------------12------------------|
   E|------------------------------------------------------|

      1  e  &  a  2  e  &  a  3  e  &  a  4
   e|---------------------------------------|
   B|----7-----------7-----------7----------|
 m G|---------------------------------------|
 2 D|----7-----------7-----------7----------|
 8 A|-10----------10----------10------------|
   E|---------------------------------------|

      1  e  &  a  2  e  &  a  3  e--e  &  a  4  e  &  a--a
   e|-------10----------10---------------------------------|
   B|-------13----------13---------------------------------|
 m G|-------12----------12---------------------------------|
 2 D|-------------------------10h12p10----9--10-12-10-9ss7-|
 9 A|----------------------------------12------------------|
   E|-12-12------------------------------------------------|

      1  e  &  a  2  e  &  a  3  e  &  a  4
   e|---------------------------------------|
   B|----7-----------7-----0-----0-----0----|
 m G|---------------------------------------|
 3 D|----7-----------7--7----(7)---(7)------|
 0 A|-10----------10------------------------|
   E|---------------------------------------|


   GUITAR 2 [1:08-1:18]

       1  e  &  a  2  e  &  a  3  e  &  a  4  e  &  a
   e||-------------------------------------------------|
   B||-------------------------------------------------|
 m G|*----------12----------12----------12-------12----|
 2 D|*----9-----------9-----------9-----------10-------|
 3 A||-------9-----------9-----------9-----12-------10-|
   E||-12----------12----------10----------------------|

      1  e  &  a  2  e  &  a  3  e  &  a  4
   e|----------------------------------------||
   B|-------10----------10----------10-------||
 m G|-11----------11----------11----------11-*|   (m27-30)
 2 D|----9-----------9-----------9-----------*|
 4 A|----------10----------10----------10----||
   E|----------------------------------------||


   GUITARS 1 & 2 [1:18-1:37]

       1  e  &  a  2  e  &  a  3  e  &  a  4  e  &  a
   e||-------------------------------------------------|
   B||-------------------------------------------------|
 m G|*----------12----------12----------12-------12----|
 3 D|*----9-----------9-----------9-----------10-------|
 1 A||-------9-----------9-----------9-----12-------10-|
   E||-12----------12----------10----------------------|

      1  e  &  a  2  e  &  a  3  e  &  a  4
   e|----------------------------------------||
   B|-------10----------10----------10-------||
 m G|-11----------11----------11----------11-*|   REPEAT
 3 D|----9-----------9-----------9-----------*|   3 TIMES (m31-m36)
 2 A|----------10----------10----------10----||
   E|----------------------------------------||

      1  e  &  a  2  e  &  a  3  e  &  a  4  e  &  a
   e|-------------------------------------------------|
   B|-------------------------------------------------|
 m G|----------12----------12----------12-------------|
 3 D|----9-----------9-----------9--------------------|
 7 A|-------9-----------9-----------9-----12-12-12-14-|
   E|-12----------12----------10----------------------|


   GUITAR 1 [1:37-1:54]

      1  &  2  &  3  &  4  &    1  &  2  &  3  &  4  &
   e|-------------------------|-------------------------|
   B|-------------------------|-------------------------|
 m G|-//-//-//-//-//-//-//-//-|-//-//-//-//-//-//-//-//-|
 3 D|-13-13-13-13-13-13-13-13-|-13-13-13-13-13-13-13-13-|
 8 A|-12-12-12-12-12-12-12-12-|-12-12-12-12-12-12-12-12-|
   E|-------------------------|-------------------------|

      1  &  2  &  3  &  4  &    1  &  2  &  3  &  4  &
   e|-------------------------|-------------------------|
   B|-------------------------|-------------------------|
 m G|-//-//-//-//-//-//-//-//-|-//-//-//-//-//-//-//-//-|
 4 D|-13-13-13-13-13-13-13-13-|-13-13-13-13-13-13-13-13-|
 0 A|-12-12-12-12-12-12-12-12-|-12-12-12-12-12-12-12-12-|
   E|-------------------------|-------------------------|

      1  &  2  &  3  &  4  &    1  &  2  &  3  &  4  &
   e|-------------------------|-------------------------|
   B|-------------------------|-------------------------|
 m G|-//-//-//-//-//-//-//-//-|-//-//-//-//-//-//-//-//-|
 4 D|-13-13-13-13-13-13-13-13-|-13-13-13-13-13-13-13-13-|
 2 A|-12-12-12-12-12-12-12-12-|-12-12-12-12-12-12-12-12-|
   E|-------------------------|-------------------------|


   GUITAR 2 [1:37-1:54]

      1  e  &  a  2  e  &  a--a  3  e  &  a--a  4  e  &  a
   e|------------------------------------------------------|
   B|------------------------------------------------------|
 m G|------------------------------------------------------|
 3 D|----------------------9h11-----9----------------------|
 8 A|-11----9--------11-9--------------11-11p9-----9--11---|
   E|----12---12--------------------------------12---------|

      1  e  &  a  2  e  &  a  3  e  &  a  4  e  &  a 
   e|-------------------------------------------------|
   B|-------------------------------12----------------|
 m G|----------------------13-------------8-----8-----|
 3 D|----------------11-------9--------------9-----9--|
 9 A|-9-----9--11-------12-------11----11-------------|
   E|----12-------------------------------------------|

       1  e  &  a  2  e  &  a  3  e  &  a--a  4  e  &  a
   e||--------------------------------------------------|
   B||--------------------------------------------------|
 m G|*--------------------------------------------------|
 4 D|*----------------------11----9---------------------|
 0 A||-11----9--------11-9-----12----12-11p9-----9--11--|
   E||----12---12-----------------------------12--------|

      1  e  &  a  2  e  &  a  3  e  &  a  4  e  &  a 
   e|-------------------------------------------------||
   B|-------------------------------12----------------||
 m G|----------------------13-------------8-----8-----*|   (m40-43)
 4 D|----------------11-------9--------------9-----9--*|
 1 A|-9-----9--11-------12-------11----11-------------||
   E|----12-------------------------------------------||


   GUITAR 1 [1:54-2:24]

      1  e  &  a  2  e  &  a  3  e  &  a  4  e  &  a
   e|-------------------------9-----------9-----9-----|
   B|-------------------------9-----------9-----9-----|
 m G|-------------------------------------------------|
 4 D|-------------------------------------------------|
 4 A|-------------------------------------------------|
   E|-------------------------------------------------|

      1  e  &  a  2  e  &  a  3  e  &  a  4  e  &  a
   e|-9-----------9-----9-----12----------12----12----|
   B|-9-----------9-----9-----12----------12----12----|
 m G|-------------------------11----------11----11----|
 4 D|-------------------------------------------------|
 5 A|-------------------------------------------------|
   E|-------------------------------------------------|

      1  e  &  a  2  e  &  a  3  e  &  a  4  e  &  a
   e|-------------------------------------------------|
   B|-10----------10----10----10----------10----10----|
 m G|-13----------13----13----13----------13----13----|
 4 D|-9-----------9-----9-----9-----------9-----9-----|
 6 A|-------------------------------------------------|
   E|-------------------------------------------------|

      1  e  &  a  2  e  &  a  3  e  &  a  4  e  &  a 
   e|-------------------------------------------------|
   B|-10----------10----10----10----------10----10----|
 m G|-13----------13----13----13----------11----11----|
 4 D|-9-----------9-----9-----9-----------9-----9-----|
 7 A|-------------------------------------------------|
   E|-------------------------------------------------|

      1  e  &  a  2  e  &  a  3  e  &  a  4  e  &  a
   e|-11----------11----------11----------11----------|
   B|-9-----9-----9-----------9-----9-----9-----9-----|
 m G|-------------------------------------------------|
 4 D|-------------------------------------------------|
 8 A|-------------------------------------------------|
   E|-------------------------------------------------|

      1  e  &  a  2  e  &  a  3  e  &  a  4  e  &  a 
   e|-11----------11----------------------------------|
   B|-9-----------9-----------------------------------|
 m G|-------------------------11----------11----------|
 4 D|-------------------------9-----------9-----------|
 9 A|-------------------------------------------------|
   E|-------------------------------------------------|

      1  e  &  a  2  e  &  a  3  e  &  a  4  e  &  a
   e|-------------------------------------------------|
   B|-10----------10----------10----10----10----------|
 m G|-11----------11----------11----11----11----------|
 5 D|-9-----------9-----------9-----9-----9-----------|
 0 A|-------------------------------------------------|
   E|-------------------------------------------------|

      1  e  &  a  2  e  &  a  3  e  &  a  4  e  &  a
   e|-------------------------------------------------|
   B|-------------------------------------------------|
 m G|-11----------11----11----11----------11----------|
 5 D|-9-----------9-----9-----9-----9-----9-----------|
 1 A|-------------------------------------------------|
   E|-------------------------------------------------|

      1  e  &  a  2  e  &  a  3  e  &  a  4  e  &  a
   e|-9-----9-----------9-----9-----9-----9-----9-----|
   B|-9-----9-----------9-----9-----9-----9-----9-----|
 m G|-------------------------------------------------|
 5 D|-------------------------------------------------|
 2 A|-------------------------------------------------|
   E|-------------------------------------------------|

      1  e  &  a  2  e  &  a  3  e  &  a  4  e  &  a
   e|-9-----9-----9-----9-----9-----9-----9-----9-----|
   B|-9-----9-----9-----9-----9-----9-----9-----9-----|
 m G|-------------------------------------------------|
 5 D|-------------------------------------------------|
 3 A|-------------------------------------------------|
   E|-------------------------------------------------|

      1  e  &  a  2  e  &  a  3  e  &  a  4  e  &  a
   e|-7-----7-----7-----7-----7-----7-----7-----7-----|
   B|-10----10----10----10----10----10----10----10----|
 m G|-------------------------------------------------|
 5 D|-9-----9-----9-----9-----9-----9-----9-----9-----|
 4 A|-------------------------------------------------|
   E|-------------------------------------------------|


   GUITAR 2 [1:54-2:24]

      1  e  &  a  2  e  &  a  3  e  &  a  4  e  &  a
   e|-------------------------------------------------|
   B|-9--9--9--9--9--9--9--9--9--9--9--9--9--9--9--9--|
 m G|-------------------------------------------------|
 4 D|-6--6--6--6--6--6--6--6--6--6--6--6--6--6--6--6--|
 4 A|-------------------------------------------------|
   E|-------------------------------------------------|

      1  e  &  a  2  e  &  a  3  e  &  a  4  e  &  a 
   e|-------------------------------------------------|
   B|-12-12-12-12-12-12-12-12-------------------------|
 m G|-------------------------9--9--9--9--9--9--9--9--|
 4 D|-9--9--9--9--9--9--9--9--------------------------|
 5 A|-------------------------7--7--7--7--7--7--7--7--|
   E|-------------------------------------------------|

      1  e  &  a  2  e  &  a  3  e  &  a  4  e  &  a
   e|-------------------------------------------------|
   B|-------------------------------------------------|
 m G|-------------------------------------------------|
 4 D|-11-11-11-11-11-11-11-11-11-11-11-11-11-11-11-11-|
 6 A|-9--9--9--9--9--9--9--9--9--9--9--9--9--9--9--9--|
   E|-12-12-12-12-12-12-12-12-12-12-12-12-12-12-12-12-|

      1  e  &  a  2  e  &  a  3  e  &  a  4  e  &  a
   e|-------------------------------------------------|
   B|-12-12-12-12-12-12-12-14-14-14-14-14-14-14-14-14-|
 m G|-------------------------------------------------|
 4 D|-11-11-11-11-11-11-11-9--9--9--9--9--9--9--9--9--|
 7 A|-------------------------------------------------|
   E|-------------------------------------------------|

      1  e  &  a  2  e  &  a  3  e  &  a  4  e  &  a
   e|-------------------------------------------------|
   B|-------------------------------------------------|
 m G|-13-13-13-13-11-11-11-11-13-13-13-13-13-13-13-13-|
 4 D|-------------------------------------------------|
 8 A|-11-11-11-11-9--9--9--9--11-11-11-11-11-11-11-11-|
   E|-------------------------------------------------|

      1  e  &  a  2  e  &  a  3  e  &  a  4  e  &  a
   e|-------------------------------------------------|
   B|-------------------------------------------------|
 m G|-16-16-16-16-16-16-16-16-16-16-16-16-16-16-16-16-|
 4 D|-------------------------------------------------|
 9 A|-14-14-14-14-14-14-14-14-14-14-14-14-14-14-14-14-|
   E|-------------------------------------------------|

      1  e  &  a  2  e  &  a  3  e  &  a  4  e  &  a
   e|-------------------------------------------------|
   B|-0--0--0--0--0--0--0--0--0--0--0--0--0--0--0--0--|
 m G|-14-14-14-14-14-14-14-14-14-14-14-14-14-14-14-14-|
 5 D|-------------------------------------------------|
 0 A|-12-12-12-12-12-12-12-12-12-12-12-12-12-12-12-12-|
   E|-------------------------------------------------|

      1  e  &  a  2  e  &  a  3  e  &  a  4  e  &  a
   e|-------------------------------------------------|
   B|-------------------------------------------------|
 m G|-11-11-11-11-11-11-11-11-13-13-13-13-13-13-13-13-|
 5 D|-------------------------------------------------|
 1 A|-9--9--9--9--9--9--9--9--11-11-11-11-11-11-11-11-|
   E|-------------------------------------------------|

      1  e  &  a  2  e  &  a  3  e  &  a  4  e  &  a
   e|-------------------------------------------------|
   B|-------------------------------------------------|
 m G|-13-13-13-13-13-13-13-13-13-13-13-13-13-13-13-13-|
 5 D|-------------------------------------------------|
 2 A|-11-11-11-11-11-11-11-11-11-11-11-11-11-11-11-11-|
   E|-------------------------------------------------|

      1  e  &  a  2  e  &  a  3  e  &  a  4  e  &  a 
   e|-------------------------------------------------|
   B|-12-12-12-12-12-12-12-12-17-17-17-17-17-17-17-17-|
 m G|-------------------------------------------------|
 5 D|-9--9--9--9--9--9--9--9--14-14-14-14-14-14-14-14-|
 3 A|-------------------------------------------------|
   E|-------------------------------------------------|

      1  e  &  a  2  e  &  a  3  e  &  a  4  e  &  a
   e|-------------------------------------------------|
   B|-------------------------------------------------|
 m G|-------------------------------------------------|
 5 D|-11-11-11-11-11-11-11-11-11-11-11-11-11-11-11-11-|
 4 A|-9--9--9--9--9--9--9--9--9--9--9--9--9--9--9--9--|
   E|-12-12-12-12-12-12-12-12-12-12-12-12-12-12-12-12-|


   GUITAR 1 [2:24-2:35]

      1   &   2   &   3   &   4   &     1   &   2   &   3   &   4   &  
   e|---------------------------------|-10----------------------10----|
   B|-------------------------10------|-10--------------10------10----|
 m G|-13----------------------11------|-11--------------11------11----|
 5 D|-14----------------------11------|-12--------------11------12----|
 5 A|-14----------------------9-------|-12--------------9-------12----|
   E|-12------------------------------|-10----------------------10----|

      1   &   2   &   3   &   4   &     1   &   2   &   3   &   4   &  
   e|---------------------------------|-10----------------------------|
   B|-12--12------------------10------|-10--------------10------------|
 m G|-13--13------------------11------|-11--------------11------11----|
 5 D|-13--14------------------11------|-12--------------11------12----|
 7 A|-11--14------------------9-------|-12--------------9-------12----|
   E|-----12--------------------------|-10----------------------10----|


   GUITAR 2 [2:24-2:35]

      1   &   2   &   3   &   4   &     1   &   2   &   3   &   4   &  
   e|-------------------------5-------|-----------------5-------------|
   B|-9-----------------------7-------|-7---------------7-------7-----|
 m G|-9-----------------------6-------|-7---------------6-------7-----|
 5 D|-9-----------------------4-------|-7---------------4-------7-----|
 5 A|-7-------------------------------|-5-----------------------5-----|
   E|---------------------------------|-------------------------------|

      1   &   2   &   3   &   4   &     1   &   2   &   3   &   4   &  
   e|-7-----------------------5-------|-----------------5-------------|
   B|-9---9-------------------7-------|-7---------------7-------7-----|
 m G|-8---9-------------------6-------|-7---------------6-------7-----|
 5 D|-6---9-------------------4-------|-7---------------4-------7-----|
 7 A|-----7---------------------------|-5-----------------------5-----|
   E|---------------------------------|-------------------------------|


   GUITAR 1 [2:35-3:44]

      1 e & a 2 e & a 3 e & a 4 e & a   1 e & a 2 e & a 3 e & a 4 e & a
   e|---------------------------------|-----4---------------------------|
   B|---------------------------------|-5-7-----------------------------|
 m G|---------6-4---4---6-----6-4-----|---------6-4---4---6-----6-4-----|
 5 D|-------------6---------------6-4-|-------------6---------------6-4-|
 9 A|-0-----0---------------0---------|-------0-------------0-0---------|
   E|---------------------------------|---------------------------------|

      1 e & a 2 e & a 3 e & a 4 e & a   1 e & a 2 e & a 3 e & a 4 e & a
   e|---------------------------------|-----4---------------------------|
   B|---------------------------------|-5-7-----------------------------|
 m G|---------6-4---4---6-----6-4-----|---------6-4---4---6-----6-4-----|
 6 D|-6-----------6---------------6-4-|-------------6---------------6-4-|
 1 A|---------------------------------|---------------------------------|
   E|-0---0-0-----0-------0-0-----0---|-------0-----0-------0-0-----0---|

       1 e & a 2 e & a 3 e & a 4 e & a   1 e & a 2 e & a 3 e & a 4 e & a
   e||---------------------------------|-----4---------------------------|
   B||---------------------------------|-5-7-----------------------------|
 m G|*---------6-4---4---6-----6-4-----|---------6-4---4---6-----6-4-----|
 6 D|*-6-----------6---------------6-4-|-------------6---------------6-4-|
 3 A||-0---0-0-----0-------0-0-----0---|-------0-----0-------0-0-----0---|
   E||---------------------------------|---------------------------------|

      1 e & a 2 e & a 3 e & a 4 e & a   1 e & a 2 e & a 3 e & a 4 e & a
   e|---------------------------------|-----4---------------------------||
   B|---------------------------------|-5-7-----------------------------||
 m G|---------6-4---4---6-----6-4-----|---------6-4---4---6-----6-4-----*|  REPEAT  *
 6 D|-6-----------6---------------6-4-|-------------6---------------6-4-*|  5 TIMES *
 5 A|---------------------------------|---------------------------------||
   E|-0---0-0-----0-------0-0-----0---|-------0-----0-------0-0-----0---||


   GUITAR 2 [2:35-3:44]

      1 e & a 2 e & a 3 e & a 4 e & a   1 e & a 2 e & a 3 e & a 4 e & a
   e|---------------------------------|---------------------------------|
   B|---------------------------------|---------------------------------|
 m G|---------------------------------|---------------------------------|
 5 D|---------9-6---6---9-----9-6-----|---6-----9-6---6---9-----9-6-----|
 9 A|-0-----0-----9---------------9-7-|-9---0-------9-------0-0-----9-7-|
   E|---------------------------------|---------------------------------|

      1 e & a 2 e & a 3 e & a 4 e & a   1 e & a 2 e & a 3 e & a 4 e & a
   e|---------------------------------|---------------------------------|
   B|---------------------------------|---------------------------7-----|
 m G|-------8-------6-------6-------8-|-------8-------6---------8---8---|
 6 D|-----------6-------6-------6-----|---6-------6-------6-------------|
 1 A|---------------------------------|---------------------------------|
   E|-0-----------0-------0-------0---|-----0-------0-------0-----------|

       1 e & a 2 e & a 3 e & a 4 e & a   1 e & a 2 e & a 3 e & a 4 e & a
   e||---------------------------------|---------------------------------|
   B||---------------------------------|---------------------------------|
 m G|*---------------------------------|---------------------------------|
 6 D|*---------9-6---6---9-----9-6-----|---6-----9-6---6---9-----9-6-----|
 3 A||-0-----0-----9-------0-0-----9-7-|-9---0-------9-------0-0-----9-7-|
   E||---------------------------------|---------------------------------|

      1 e & a 2 e & a 3 e & a 4 e & a   1 e & a 2 e & a 3 e & a 4 e & a
   e|---------------------------------|---------------------------------||
   B|---------------------------------|---------------------------7-----||
 m G|-------8-------6-------6-------8-|-------8-------6---------8---8---*|  REPEAT  *
 6 D|-----------6-------6-------6-----|---6-------6-------6-------------*|  5 TIMES *
 5 A|---------------------------------|---------------------------------||
   E|-0-----------0-------0-------0---|-----0-------0-------0-----------||


   GUITAR 1 [3:44-4:02]

             6/8               5/8               6/8                 6/8             3/8
       1  &  a  2  &  a   1  &  a  2  &    1  &  a  2  &  a    1  &  a  2  &  a    1  &  a 
   e||-9--9--9--9--9----|-9--9--9--9--9--|-------------------|-------------------|---------||
   B||-9--9--9--9--12---|-9--9--9--9--12-|-9--9--9--9--9--9--|-9--9--9--9--9--9--|---------||
 m G|*-9--9--9--9--9----|-9--9--9--9--9--|-9--9--9--9--9--9--|-9--9--9--9--9--9--|---------*|
 6 D|*-11-11-11-11-11---|-11-11-11-11-11-|-9--9--9--9--9--9--|-9--9--9--9--9--9--|---------*|
 7 A||-0--0--0--0--0----|-0--0--0--0--0--|-11-11-11-11-11-11-|-11-11-11-11-11-11-|---------||
   E||------------------|----------------|-0--0--0--0--0--0--|-0--0--0--0--0--0--|-12-11-9-||

   REPEAT THE ABOVE PASSAGE 4 TIMES


   GUITAR 2 [3:44-4:02]

             6/8               5/8               6/8                6/8             3/8
       1  &  a  2  &  a   1  &  a  2  &    1  &  a  2  &  a   1  &  a  2  &  a    1  &  a 
   e||------------------|----------------|------------------|-------------------|---------||
   B||-9--9--9--9--12---|-9--9--9--9--12-|------------------|-------------------|---------||
 m G|*-9--9--9--9--9----|-9--9--9--9--9--|-9--9--9--9--11---|-9--9--9--9--11-9--|---------*|
 6 D|*-11-11-11-11-11---|-11-11-11-11-11-|-9--9--9--9--9----|-9--9--9--9--9--9--|---------*|
 7 A||------------------|----------------|-11-11-11-11-11---|-11-11-11-11-11-11-|---------||
   E||------------------|----------------|------------------|-------------------|-12-11-9-||

   REPEAT THE ABOVE PASSAGE 4 TIMES


   GUITARS 1 & 2 [4:02-4:33]

             6/8               5/8               6/8                6/8            3/8
       1  &  a  2  &  a   1  &  a  2  &    1  &  a  2  &  a   1  &  a  2  &  a   1  &  a 
   e||----------9-------|----------9-----|------------------|------------------|---------||
   B||-------9-----12---|-------9-----12-|----------9-------|----------9-------|---------||
 m G|*----9-------------|----9-----------|-------9-----11---|-------9-----11-9-|---------*|
 7 D|*-11---------------|-11-------------|----9-------------|----9-------------|---------*|
 3 A||-0----------------|-0--------------|-11---------------|-11---------------|---------||
   E||------------------|----------------|-0----------------|-0----------------|-12-11-9-||

   REPEAT THE ABOVE PASSAGE 7 TIMES


   GUITAR 1 [4:33-end]

              6/8               5/8               6/8                6/8
      1  &  a  2  &  a   1  &  a  2  &    1  &  a  2  &  a   1  &  a  2  &  a
   e|----------9-------|----------9-----|------------------|------------------|||
   B|-------9-----12---|-------9-----12-|----------9-------|------------------|||
 m G|----9-------------|----9-----------|-------9-----11---|-------9----------|||
 7 D|-11---------------|-11-------------|----9-------------|----9--------**---|||
 8 A|-0----------------|-0--------------|-11---------------|-11----------RR---|||
   E|------------------|----------------|-0----------------|-0-----------12---|||

   **DETUNE FINAL NOTE DOWN AND UP A WHOLE STEP

   GUITAR 2 [4:33-end]

              6/8               5/8               6/8                6/8
      1  &  a  2  &  a   1  &  a  2  &    1  &  a  2  &  a   1  &  a  2  &  a
   e|----------9-------|----------9-----|------------------|------------------|||
   B|-------9-----12---|-------9-----12-|----------9-------|------------------|||
 m G|----9-------------|----9-----------|-------9-----11---|-------9--9-------|||
 7 D|-11---------------|-11-------------|----9-------------|----9-------------|||
 8 A|-0----------------|-0--------------|-11---------------|-11----------RR---|||
   E|------------------|----------------|-0----------------|-0-----------12---|||

Добавлено: 15.04.2012
Другие материалы по этой песне:
  • Аккорды и текст

Страница создана 15.04.2012
http://primanota.ru/women/shaking-hand-chords.htm
Привет, Гость.
Предлагаем пройти революционный курс по гитаре.
Подарок от PrimaNota.Ru, забирай!