PrimaNota.ru - самый крупный в мире бесплатный архив песенных текстов, аккордов, табулатур и нот


Women - Heat Distraction - таба, видео

Регистрация Запомнить меня
Войти через:  Facebook Google Twitter Vk Yandex Mail.ru

Women - Heat Distraction - таба, видео

Печатать
Просмотров: 90
Heat Distraction
by Women

Tab by ZorakIsStained
soniclife19@gmail.com

Timing not reflected by note spacing as shown, left to reader. Section head is the time signature.
Feedback is always appreciated; it's not all there but it's close.


*13/8 section

Guitar 1/2:

e|---------------------------17-19--------------|
B|19---------17--14-----------------------------|
G|---------------------------------------16-----|  Repeated
D|---17--------------17-------------17------19--|
A|-------0---------------0------------0---------|
E|----------------------------------------------|

At the chord change play low E for two bars instead of A

*5/4 section

Guitar 1

Rest 5 bar then

e|----------------------------------|
B|14--9--9--10--9-----14--9--9--10--|
G|-----------------9----------------| Repeated
D|----------------------------------|
A|----------------------------------|
E|----------------------------------|


e|14--9---------9-----14--9---------|
B|-------9--12-----9---------9--12--| played twice
G|----------------------------------|
D|----------------------------------|
A|----------------------------------|
E|----------------------------------|


Guitar 2

e|----------------------------|
B|----------------------------|
G|9---9---------9---9---------| Repeated
D|13--11--------13--11--------|
A|----------------------------|
E|----------------------------|


e|14--14--14--14--14--|
B|9---9---9---9---9---|
G|11--11--11--11--11--| Played twice
D|--------------------|
A|--------------------|
E|--------------------|


Both Guitars

e|-------------------|-------------------|
B|-------------------|-------------------|
G|-------------------|-------------------|
D|-------------------|-------------------|
A|17--17--17--17--17-|12--12--12--12--12-|
E|19--19--19--19--19-|17--17--17--17--17-|


Guitar 1

e|-------------------|
B|-------------------|
G|-------------------|
D|-------------------|
A|7---7----7----7----|
E|11--9----11---9----|


Guitar 2
something like
e|-------------------|
B|-------------------|
G|-------------------|
D|10--8------10--8---|
A|10--10-----10--10--|
E|9---9------9---9---|

Back to top of 5/4 section and guitars trade parts


*4/4 section

Same chords played by both guitars. Guitar 1 plays bass notes, guitar 2 higher notes.


Guitar 2

  Bm    Em    A      A/G
e|------------------------|
B|12----12----5-----------|
G|11----9-----6-----------| Four times
D|12----9-----7------7----|
A|-------------------7----|
E|-------------------3----|


  A#  G#  C#   F#   Fm/C
e|-------------------------|
B|6---4---9----11---9------|
G|7---5---10---11---10-----|
D|8---6---11---11---10-----|
A|-------------9-----------|
E|------------------8------|
Добавлено: 07.12.2013
Другие материалы по этой песне:
  • Аккорды и текст

Страница создана 07.12.2013
http://primanota.ru/women/heat-distraction-chords.htm
Привет, Гость.
Предлагаем пройти революционный курс по гитаре.
Подарок от PrimaNota.Ru, забирай!