PrimaNota.ru - самый крупный в мире бесплатный архив песенных текстов, аккордов, табулатур и нот


Women - Drag Open - таба, видео

Регистрация Запомнить меня
Войти через:  Facebook Google Twitter Vk Yandex Mail.ru

Women - Drag Open - таба, видео

Печатать
Просмотров: 89
Drag Open
by Women

Tabbed by ZorakIsStained
soniclife19@gmail.com

This is mostly the outro, get a guitar in the all C# tuning and the rest is relatively 
obvious. Pat uses this shape

a lot in the main section:

C#|---
C#|---
C#|-9-
C#|-9-
C#|-7-
C#|-7-

In fact, when not strumming behind the bridge, chances are he's playing a chord like 
that one.
Note: This tuning is also used for China Steps, Untogether, and probably January 
8th and Flashlights.

Chris's part is pretty hard to make out but it's mostly noise for the first verse and 
something like this for the second:

e|----------------------------------|
B|----------------------------------|
G|----------------------------------|
D|----------------------------------|
A|6-8-----8-10----------------------|
E|----8-8-----6-6-6/4-4-4-----------|




Outro:

Chris:
   4/4
E|----------------|---------------------------------|
B|-18-------------|-16--18--------------------------|
G|----------------|---------------------------------|
D|------------15--|---------------------------------|
A|----------------|---------------------13------13--|
E|----------------|---------18--16--16------16------|


                                3/4
E|---------------------------|------------|
B|---------------------------|-------18---|
G|-----12--------------------|------------|
D|----------15---------------|------------|
A|-------------------13--15--|------------|
E|-16------------13----------|-15---------|



   4/4
E|-------------|---------------------------------|
B|-------------|-16--18--------------------------|
G|-17---15-----|---------------------------------|
D|-------------|---------------------------------|
A|-------------|---------------------13------13--|
E|-------------|---------18--16--16------16------|



                                3/4
E|---------------------------|------------|
B|---------------------------|-------18---|
G|-----12--------------------|------------|
D|----------15---------------|------------|
A|-------------------13--15--|------------|
E|-16------------13----------|-15---------|



Pat:
    4/4
C#|---------------------------------|---------------------------------|
C#|-16--16--16--16--16--16--16--11--|-14--16--11--16--0---9---11--9---|
C#|-16--16--16--16--16--16--16------|---------------------------------|
C#|-0---0---0---0---0---0---0-------|---------------------------------|
C#|-0---0---0---0---0---0---0-------|---------------------------------|
C#|---------------------------------|---------------------------------|



C#|------------------------------|------------|
C#|-----6-------4----0---6---4---|-4----------|
C#|-0-------2--------------------|------------|
C#|------------------------------|------------|
C#|------------------------------|------------|
C#|------------------------------|------------|



    3/4          4/4
C#|---------------------------------|---------------------------------|
C#|-16--16--16--16--16--16--16--11--|-14--16--11--16--0---9---11--9---|
C#|-16--16--16--16--16--16--16------|---------------------------------|
C#|---------------------------------|---------------------------------|
C#|---------------------------------|---------------------------------|
C#|---------------------------------|---------------------------------|

                                   3/4
C#|------------------------------|----------------|
C#|-----6-------4----0---6---4---|-4--------------|
C#|-0-------2--------------------|----------------|
C#|------------------------------|----------------|
C#|------------------------------|----------------|
C#|------------------------------|----------------|
Добавлено: 26.05.2014
Другие материалы по этой песне:
  • Аккорды и текст

Страница создана 26.05.2014
http://primanota.ru/women/drag-open-chords.htm
Привет, Гость.
Предлагаем пройти революционный курс по гитаре.
Подарок от PrimaNota.Ru, забирай!