PrimaNota.ru - самый крупный в мире бесплатный архив песенных текстов, аккордов, табулатур и нот


Women - China Steps - таба, видео

Регистрация Запомнить меня
Войти через:  Facebook Google Twitter Vk Yandex Mail.ru

Women - China Steps - таба, видео

Печатать
Просмотров: 82
-------------------------------------------------------------------------------
                             China Steps - Women
-------------------------------------------------------------------------------

Tuning: C#C#C#C#C#C# (Octaves 233344) I.e. tune down, up, down, down, up, down.
You'd need to change strings though. If you have an old, shitty guitar laying around, I'd say change them.
That's what I did, and it was worth it because these songs are pretty fun to play.

The whole song is played like this:

Pat:
C#|--------------------------------------------------------------|
C#|--------------------------------------------------------------|
C#|--------20--20-------20--20--------20--20--------20--20-------|
C#|--------20--20-------20--20--------20--20--------20--20-------| x2
C#|--------------------------------------------------------------|
C#|----20------------20-----------20------------20---------------|

C#|--------------------------------------------------------------|
C#|--------------------------------------------------------------|
C#|--------18--20-------18--20--------18--20--------18--20-------|
C#|--------18--20-------18--20--------18--20--------18--20-------|
C#|--------------------------------------------------------------|
C#|----21------------21-----------21------------21---------------|

C#|--------------------------------------------------------------|
C#|--------------------------------------------------------------|
C#|--------20--20-------20--20--------20--20--------20--20-------|
C#|--------20--20-------20--20--------20--20--------20--20-------|
C#|--------------------------------------------------------------|
C#|----18------------18-----------18------------18---------------|

C#|--------------------------------------------------------------|
C#|--------------------------------------------------------------|
C#|--------21--21-------21--21--------21--21--------21--21-------|
C#|--------20--20-------20--20--------20--20--------20--20-------| x2
C#|--------------------------------------------------------------|
C#|----20------------20-----------20------------20---------------|

C#|--------------------------------------------------------------|
C#|--------------------------------------------------------------|
C#|--------18--20-------18--20--------18--20--------18--20-------|
C#|--------18--20-------18--20--------18--20--------18--20-------|
C#|--------------------------------------------------------------|
C#|----21------------21-----------21------------21---------------|

C#|--------------------------------------------------------------|
C#|--------------------------------------------------------------|
C#|--------20--20-------20--20--------20--20--------20--20-------|
C#|--------20--20-------20--20--------20--20--------20--20-------|
C#|--------------------------------------------------------------|
C#|----18------------18-----------18------------18---------------|

C#|--0------0------0------0------0------0------|
C#|--0------0------0------0------0------0------|
C#|--0------0------0------0------0------0------|
C#|--0------0------0------0------0------0------|
C#|--0------0------0------0------0------0------|
C#|--0------0------0------0------0------0------|

I don't know how Chris plays his parts unfortunately.
He holds this shape, but I don't know what's muted, and what's fretted:
https://gyazo.com/af0430a348e8e8cbaa1002f7aa491d1e
Добавлено: 10.06.2016
Другие материалы по этой песне:
  • Аккорды и текст

Страница создана 10.06.2016
http://primanota.ru/women/china-steps-chords.htm
Привет, Гость.
Предлагаем пройти революционный курс по гитаре.
Подарок от PrimaNota.Ru, забирай!