PrimaNota.ru - самый крупный в мире бесплатный архив песенных текстов, аккордов, табулатур и нот


Women - Bullfight - таба, видео

Регистрация Запомнить меня
Войти через:  Facebook Google Twitter Vk Yandex Mail.ru

Women - Bullfight - таба, видео

Печатать
Просмотров: 104
Bullfight by Women
from the Faux Discx split

Tab by ZorakIsStained
soniclife19@gmail.com

Feel free to e-mail me any questions, etc. I'm pretty sure I have Eyesore 
figured out too but I don't really want to take the time to tab it out 
unless someone's actually interested. I also did the Sag Harbor Bridge GP 
tab, so if you want a notepad version of that just e-mail.

This song isn't particularly hard, one just needs to pay attention to the 
time changes, which I will try to point out as necessary. With the exception 
of about 2 bars in the middle part of the song the two guitars mostly just 
play the same chords on different parts on the neck, one doing Bar chords, 
the other open forms at the 12th fret.

Bass enters 4 bars into the song, Guitar 1 is 8 measures after that. Beyond 
that, I'm not really going to go into detail about how the song is arranged, 
it should be obvious from looking through what I've written and listening to 
the track.

The tl;dr version is as follows:

E A F  x2
C A G  

then

D C F x2
C A G

end

C A G x2
F A G x2

Tab:

*Part 1

Guitar 1
         4/4
e|----------------|----7-----7-----|----7-----7-----|----7-----7-----|
B|----------------|----8-----8-----|----8-----8-----|----8-----8-----|
G|----------------|----------------|----------------|----------------|
D|----------------|----------------|----------------|----------------|
A|----------------|----------------|----------------|----------------|
E|----------------|----------------|----------------|----------------|


e|----7-----7-----|----7-----7-----|----7-----7-----|----7-----7-----|
B|----8-----8-----|----8-----8-----|----8-----8-----|----8-----8-----|
G|----------------|----------------|----------------|----------------|
D|----------------|----------------|----------------|----------------|
A|----------------|----------------|----------------|----------------|
E|----------------|----------------|----------------|----------------|
 


Guitar 1
         4/4         2/4         4/4
e|----7-----7-----|----10--|----8-----8-----|----8-----8-----|
B|----8-----8-----|----8---|----6-----6-----|----6-----6-----|
G|----------------|--------|----------------|----------------|  X2
D|----------------|--------|----------------|----------------|
A|----------------|--------|----------------|----------------|
E|----------------|--------|----------------|----------------|

Guitar 2
        4/4          2/4         4/4
e|----------------|--------|13--13--13--13--|13--13--13--13--|
B|----------------|--------|13--13--13--13--|13--13--13--13--|
G|----------------|--------|14--14--14--14--|14--14--14--14--|  X2
D|----------------|19--17--|15--15--15--15--|15--15--15--15--|
A|19--19----19----|0---0---|15--15--15--15--|15--15--15--15--|
E|0---0-----0-----|--------|----------------|----------------|


*Part 2

Guitar 1
         4/4         2/4         4/4
e|----------------|--------|----------------|----------------|
B|----------------|--------|----------------|----------------|
G|----------------|--------|----------------|----------------|  
D|10--10--10--10--|7---7---|5---5---5---5---|5---5---5---5---|
A|10--10--10--10--|7---7---|5---5---5---5---|5---5---5---5---|
E|8---8---8---8---|5---5---|3---3---3---3---|3---3---3---3---| 

Guitar 2
         4/4         2/4         4/4
e|----------------|--------|15--15--15--15--|15--15--15--15--|
B|13--13--13--13--|14--14--|0---0---0---0---|0---0---0---0---|
G|0---0---0---0---|14--14--|0---0---0---0---|0---0---0---0---|  
D|14--14--14--14--|14--14--|0---0---0---0---|0---0---0---0---|
A|15--15--15--15--|0---0---|14--14--14--14--|14--14--14--14--|
E|----------------|--------|15--15--15--15--|15--15--15--15--| 

Second time through part 2 the last measure is shortened, roughly to 3/4


*Part 3

Guitar 1
         4/4        
e|----------------|----------------|           |----------------|
B|----------------|----------------|           |----------------|
G|----------------|----------------|           |----------------|  
D|12---------10---|3-------3-------|   x2      |3-------3-------|
A|12---------10---|3-------3-------|           |3-------3-------|
E|10---------8----|1-------1-------|           |1-------1-------|

Guitar 2
         4/4        
e|14----------0---|----------------|           |----------------|
B|15----------13--|13------13------|           |13------13------|
G|14----------0---|14------14------|           |14------14------|  
D|------------14--|15------15------|   x2      |15------15------|
A|------------15--|x-------x-------|           |x-------x-------|
E|----------------|11------11------|           |11------11------| 


*Part 4
Now the tricky section, the song goes back to Part 1 more or less but then 
there's this thing after the 2/4;
(spacing changed for clarity)


Guitar 1

e| - - - -'- 10  -"12- - -'- - - - | - - - - - - - -'- - - -'17- - - |
B| - - - - 13- 13- - 13- - - - 13- | - - - - - - - - - 13- - - - - - |
G| - - - - - - - - - - 14- - - - - | - - - - - - - - - - - - - - - - | First time
D| - - - - - - - - - - - - 14- - - | - - - - - - - - 15- 15- - - - - |
A| - - - - - - - - - - - - - - - - | - - - - - - - - - - - - - - - - |
E| - - - - - - - - - - - - - - - - | 7 - 5 - - - - - - - - - - - - - |
          Triplet  Triplet                          Triplet



e| - - - -'- 10  -"12- - -'- - - - | - - - - - - - -'12- - -'- - - - |
B| - - - - 13- 13- - 13- - - - 13- | - - - - - - - - - 13- - - - - - |
G| - - - - - - - - - - 14- - - - - | - - - - - - - - - - 12- - - - - | Second time
D| - - - - - - - - - - - - 14- - - | - - - - - - - - - - - - 15- - - |
A| - - - - - - - - - - - - - - - - | - - - - - - - - - - - - - - - - |
E| - - - - - - - - - - - - - - - - | 7 - 5 - - - - - - - - - - - - - |
          Triplet  Triplet                          Triplet

Guitar 2

e| - - - - - - - - - - - - - - - - | - - - - - - - - - - - - - - - - |
B| - - - - - - 12- - - - - - - - - | - - - - - - - - - - - - - - - - |    
G| - - - - - - - - - - - - - - 12- | - - - - - - 9 - - - - - - - - - |
D| - - - - 14- - - - - - - 10- - - | - - - - 7 - - - - - - - - - - - |
A| - - - - - - - - - - - - - - - - | - - - - - - - - - - - - - - - - |
E| 13- 12- - - - - 10- 8 - - - - - | 7 - 5 - - - - - 3 - - - - - - - |

I'm not 100% about either of those parts, if you have better idea of what's 
happening here I'd love to hear about it.

After this it goes back to Parts 2 and 3 and then to the end.

*End

Both Guitars play open forms at 12th fret:

C A G x2
F A G x2

Добавлено: 07.03.2012
Другие материалы по этой песне:
  • Аккорды и текст

Страница создана 07.03.2012
http://primanota.ru/women/bullfight-chords.htm
Привет, Гость.
Предлагаем пройти революционный курс по гитаре.
Подарок от PrimaNota.Ru, забирай!