PrimaNota.ru - самый крупный в мире бесплатный архив песенных текстов, аккордов, табулатур и нот


Women - Black Rice - таба, видео

Регистрация Запомнить меня
Войти через:  Facebook Google Twitter Vk Yandex Mail.ru

Women - Black Rice - таба, видео

Печатать
Просмотров: 64
Уроки эстрадного вокала в Санкт-Петербурге
-------------------------------------------------------------------------------
                             Black Rice - Women
-------------------------------------------------------------------------------

Tuning: Standard

e|---------------------------------------------------------------------------|
B|---------------------------------------------------------------------------|
G|---------------------------------------------------------------------------|
D|--------10-10-------10-10-------10-10-------10-10-------10-10-------10-10--|
A|---------------------------------------------------------------------------|
E|--10-10-------10-10-------10-10-------10-10-------10-10-------10-10--------|

e|---------------------------------------------------------------------------|
B|---------------------------------------------------------------------------|
G|---------------------------------------------------------------------------|
D|--------10-10-------10-10-------10-10-------10-10-------10-10-------10-10--|
A|--10-10-------10-10--------------------------------------------------------|
E|--------------------------10-10-------10-10-------10-10-------10-10--------|

e|---------------------------------------------------------------------------|
B|---------------------------------------------------------------------------|
G|---------------------------------------------------------------------------|
D|--------10-10--------------------------------------------------------------|
A|--10-10-------10-10-9-9----------------------------------------------------|
E|---------------------------------------------------------------------------|

e|--7-7-7-7-7-7-7-7-7-7-7-7-7--5--5-5-5-5-5-5-5-5-5--7--3-3-3-3-3-3-3-3-3----|
B|--9-9-9-9-9-9-9-9-9-9-9-9-9--7--5-5-5-5-5-5-5-5-5--7--3-3-3-3-3-3-3-3-3----|
G|--7-7-7-7-7-7-7-7-7-7-7-7-7--7--6-6-6-6-6-6-6-6-6--8--4-4-4-4-4-4-4-4-4----|
D|--9-9-9-9-9-9-9-9-9-9-9-9-9--7--7-7-7-7-7-7-7-7-7--9--5-5-5-5-5-5-5-5-5----|
A|--7-7-7-7-7-7-7-7-7-7-7-7-7--5--7-7-7-7-7-7-7-7-7--9--5-5-5-5-5-5-5-5-5----|
E|--7-7-7-7-7-7-7-7-7-7-7-7-7--5--5-5-5-5-5-5-5-5-5--7--3-3-3-3-3-3-3-3-3----|

e|--5--5-5-5-5-5-5-5-----------7-7-7-7--3-3-3-3--5--5-5-5-5-5-5-5-5-5--------|
B|--7--5-5-5-5-5-5-5--6-6-6-6--7-7-7-7--3-3-3-3--7--5-5-5-5-5-5-5-5-5--------|
G|--7--6-6-6-6-6-6-6--7-7-7-7--7-7-7-7--4-4-4-4--7--6-6-6-6-6-6-6-6-6--------|
D|--7--7-7-7-7-7-7-7--8-8-8-8--9-9-9-9--5-5-5-5--7--7-7-7-7-7-7-7-7-7--------|
A|--5--7-7-7-7-7-7-7--8-8-8-8--9-9-9-9--5-5-5-5--5--7-7-7-7-7-7-7-7-7--------|
E|--5--5-5-5-5-5-5-5-----------7-7-7-7--3-3-3-3--5--5-5-5-5-5-5-5-5-5--------|

e|--7--3-3-3-3-3-3-3-3-3--5--5-5-5-5-5-5-5-----------7-7-7-7-----------------|
B|--7--3-3-3-3-3-3-3-3-3--7--5-5-5-5-5-5-5--6-6-6-6--7-7-7-7--3-3-3-3--5-5---|
G|--8--4-4-4-4-4-4-4-4-4--7--6-6-6-6-6-6-6--7-7-7-7--7-7-7-7--4-4-4-4--6-6---|
D|--9--5-5-5-5-5-5-5-5-5--7--7-7-7-7-7-7-7--8-8-8-8--9-9-9-9--5-5-5-5--7-7---|
A|--9--5-5-5-5-5-5-5-5-5--5--7-7-7-7-7-7-7--8-8-8-8--9-9-9-9--5-5-5-5--7-7---|
E|--7--3-3-3-3-3-3-3-3-3--5--5-5-5-5-5-5-5-----------7-7-7-7-----------------|

e|---------------------------------------------------------------------------|
B|--3------------------------------------------------------------------------|
G|--4------------------------------------------------------------------------|
D|--5------------------------------------------------------------------------|
A|--5------------------------------------------------------------------------|
E|----3-3-3-3-3-3-3-3-3-3-3-3-3-3-3-3----------------------------------------|

e|---------------------------------------------------------------------------|
B|---------------------------10-10-10-10--8--8--8--8---10-10-10-10-----------|
G|---------------------------11-11-11-11--9--9--9--9---11-11-11-11-----------|
D|--------10-10-------10-10--12-12-12-12--10-10-10-10--12-12-12-12-----------|
A|---------------------------12-12-12-12--10-10-10-10--12-12-12-12-----------|
E|--10-10-------10-10--------------------------------------------------------|

e|---------------------------------------------------------------------------|
B|--8--8--8--8---10-10-10-10--8--8--8--8---10-10-10-10--8--8--8--8-----------|
G|--9--9--9--9---11-11-11-11--9--9--9--9---11-11-11-11--9--9--9--9-----------|
D|--10-10-10-10--12-12-12-12--10-10-10-10--12-12-12-12--10-10-10-10----------|
A|--10-10-10-10--12-12-12-12--10-10-10-10--12-12-12-12--10-10-10-10----------|
E|---------------------------------------------------------------------------|

e|---------------------------------------------------------------------------|
B|---------------------------------------------------------------------------|
G|--19-19-19------------19-19-19------------19-19-19------------19-19-19-----|
D|--19-19-19--19-19-19--19-19-19--19-19-19--19-19-19--19-19-19--19-19-19-----|
A|--17-17-17--17-17-17--17-17-17--17-17-17--17-17-17--17-17-17--17-17-17------|
E|--17-17-17--17-17-17--17-17-17--17-17-17--17-17-17--17-17-17--17-17-17-----|

e|---------------------------------------------------------------------------|
B|------------17-17-17-17-17-17-17-17----------------------------------------|
G|---------------------------------------------------------------------------|
D|--19-19-19--19-19-19-19-19-19-19-19----------------------------------------|
A|--17-17-17--17-17-17-17-17-17-17-17----------------------------------------|
E|--17-17-17--17-17-17-17-17-17-17-17----------------------------------------|

e|---------------------------------------------------------------------------|
B|---------------------------------------------------------------------------|
G|---------------------------------------------------------------------------|
D|--------10-10-------10-10-------10-10-------10-10-------10-10-------10-10--|
A|--------------------------10-10-------10-10--------------------------------|
E|--10-10-------10-10-------------------------------10-10-------10-10--------|

e|---------------------------------------------------------------------------|
B|---------------------------------------------------------------------------|
G|---------------------------------------------------------------------------|
D|--------10-10-------10-10-------10-10--------------------------------------|
A|--------------------------10-10-------10-10-9-9----------------------------|
E|--10-10-------10-10--------------------------------------------------------|

e|--7-7-7-7-7-7-7-7-7-7-7-7-7--5--5-5-5-5-5-5-5-5-5--7--3-3-3-3-3-3-3-3-3----|
B|--9-9-9-9-9-9-9-9-9-9-9-9-9--7--5-5-5-5-5-5-5-5-5--7--3-3-3-3-3-3-3-3-3----|
G|--7-7-7-7-7-7-7-7-7-7-7-7-7--7--6-6-6-6-6-6-6-6-6--8--4-4-4-4-4-4-4-4-4----|
D|--9-9-9-9-9-9-9-9-9-9-9-9-9--7--7-7-7-7-7-7-7-7-7--9--5-5-5-5-5-5-5-5-5----|
A|--7-7-7-7-7-7-7-7-7-7-7-7-7--5--7-7-7-7-7-7-7-7-7--9--5-5-5-5-5-5-5-5-5----|
E|--7-7-7-7-7-7-7-7-7-7-7-7-7--5--5-5-5-5-5-5-5-5-5--7--3-3-3-3-3-3-3-3-3----|

e|--5--5-5-5-5-5-5-5-----------7-7-7-7--3-3-3-3--5--5-5-5-5-5-5-5-5-5--------|
B|--7--5-5-5-5-5-5-5--6-6-6-6--7-7-7-7--3-3-3-3--7--5-5-5-5-5-5-5-5-5--------|
G|--7--6-6-6-6-6-6-6--7-7-7-7--7-7-7-7--4-4-4-4--7--6-6-6-6-6-6-6-6-6--------|
D|--7--7-7-7-7-7-7-7--8-8-8-8--9-9-9-9--5-5-5-5--7--7-7-7-7-7-7-7-7-7--------|
A|--5--7-7-7-7-7-7-7--8-8-8-8--9-9-9-9--5-5-5-5--5--7-7-7-7-7-7-7-7-7--------|
E|--5--5-5-5-5-5-5-5-----------7-7-7-7--3-3-3-3--5--5-5-5-5-5-5-5-5-5--------|

e|--7--3-3-3-3-3-3-3-3-3--5--5-5-5-5-5-5-5-----------7-7-7-7-----------------|
B|--7--3-3-3-3-3-3-3-3-3--7--5-5-5-5-5-5-5--6-6-6-6--7-7-7-7--3-3-3-3--5-5---|
G|--8--4-4-4-4-4-4-4-4-4--7--6-6-6-6-6-6-6--7-7-7-7--7-7-7-7--4-4-4-4--6-6---|
D|--9--5-5-5-5-5-5-5-5-5--7--7-7-7-7-7-7-7--8-8-8-8--9-9-9-9--5-5-5-5--7-7---|
A|--9--5-5-5-5-5-5-5-5-5--5--7-7-7-7-7-7-7--8-8-8-8--9-9-9-9--5-5-5-5--7-7---|
E|--7--3-3-3-3-3-3-3-3-3--5--5-5-5-5-5-5-5-----------7-7-7-7-----------------|

e|---------------------------------------------------------------------------|
B|--3------------------------------------------------------------------------|
G|--4------------------------------------------------------------------------|
D|--5------------------------------------------------------------------------|
A|--5------------------------------------------------------------------------|
E|----3-3-3-3-3-3-3-3-3-3-3-3-3-3-3-3----------------------------------------|

e|---------------------------------------------------------------------------|
B|---------------------------------------------------------------------------|
G|--11--9---11--9------------------------------------------------------------|
D|--13--11--13--11-----------------------------------------------------------|
A|--12--10--12--10-----------------------------------------------------------|
E|---------------------------------------------------------------------------|
Добавлено: 12.08.2015
Другие материалы по этой песне:
  • Аккорды и текст

Страница создана 12.08.2015
http://primanota.ru/women/black-rice-chords.htm
Привет, Гость.
Предлагаем пройти революционный курс по гитаре.
Подарок от PrimaNota.Ru, забирай!