PrimaNota.ru - самый крупный в мире бесплатный архив песенных текстов, аккордов, табулатур и нот


Wolves In The Throne Room - Vastness And Sorrow - таба, видео

Регистрация Запомнить меня
Войти через:  Facebook Google Twitter Vk Yandex Mail.ru

Wolves In The Throne Room - Vastness And Sorrow - таба, видео

Печатать
Просмотров: 80
Wolves in the Throne Room-Vastness and Sorrow (Intro)

Here is the intro to Vastness and Sorrow from the album Two Hunters.

Standard Tuning.
4/4 time.

G1 and G2 (tremolo picking for G2)
----------------------------------------------------------------|
-16--15--13----16--15--------16--15--13----16--15--12-----------|
-----------------------12---------------------------------------|
----------------------------------------------------------------|
-/6--\5--\3----/6--\5--------/6--\5--\3----/6--\5--\2-----------|
-----------------------\3---------------------------------------|
|G3
----------------------------------------------------------------|
----------------------------------------------------------------|
----------------------------------------------------------------|
----------------------------------------------------------------|
--3-------6--5----------6--5--3-------6--5--2-------6--5--------|
----------------3-----------------------------------------------|

feel free to pick up where i left off, im still new at this.
Добавлено: 30.04.2012
Другие материалы по этой песне:

Страница создана 23.03.2012
http://primanota.ru/wolves-in-the-throne-room/vastness-and-sorrow-chords.htm
Привет, Гость.
Предлагаем пройти революционный курс по гитаре.
Подарок от PrimaNota.Ru, забирай!