PrimaNota.ru - самый крупный в мире бесплатный архив песенных текстов, аккордов, табулатур и нот


Wolves In The Throne Room - Crystal Ammunition - таба, видео

Регистрация Запомнить меня
Войти через:  Facebook Google Twitter Vk Yandex Mail.ru

Wolves In The Throne Room - Crystal Ammunition - таба, видео

Печатать
Просмотров: 85
Wolves In The Throne Room
"Crystal Ammunition"


intro
--------------------------|
--------------------------|
-(9)----------------------|
--9--(10)---------9-9-10--|
--7---10----------7-7-7---|
-(0)---8------------------|


2:00 play twice- 2nd time through skip the first and last chords
--------------------------------------------------------|
--------------------------------------------------------|
--9-----------------------------------------------------|
--9----12----10-9-10----12---9-------12---10---12---14--|
--7-----------------------------------------------------|
-------10-----8-7-8-----10---7-------10---8----10---12--|


2:35 "riff B" -vocals come in, slower rhythm now
-----------------|
-----------------|
----9------------|
---------12--10--|
----7------------|
---------10---8--|


2:55
------------------|
------------------|
------------------|
--9-----12--10----|
------------------|
--7-----10--8-----|


3:15 
--------------------------------------------------|
--------------------------------------------------|
---9----------------------------------------------|
--(9)-----12--10--9--10--12--9--------12--10--12--|
---7----------------------------------------------|
--(7)-----10--8---7---8--10--7--------10--8---10--|

3:54
play riff B again

4:34
play first riff again, hold an A major as the song fades out

5:52-7:58  atmospheric section


7:59 back to tremolo picking
----------------------------|
----------------------------|
----------------------------|
-(7)----9-----10--9---7-----|
--7-------------------------|
--5-----7-----9---7---5-----|


8:36
-------------------------------|
-------------------------------|
-------------------------------|
-(7)-----9-------10--7---9--10-|
--7----------------------------|
--5------7-------8---5---7---8-|


9:14 slower rhythm from here on out
---------------------------|
---------------------------|
---------------------------|
--10----12--10----12--9----|
---------------------------|
--8-----10---8-----8--7----|


9:29
------------------------|
------------------------|
------------------------|
-(7)-----10---12---9----|
--7---------------------|
--5------8-----8---7----|


10:12 outro
---------------------|
---------------------|
---------------------|
---7-----10---9------|
---7-----------------|
---5-----8----7------|
Добавлено: 20.09.2013
Другие материалы по этой песне:
  • Аккорды и текст

Страница создана 20.09.2013
http://primanota.ru/wolves-in-the-throne-room/crystal-ammunition-chords.htm
Привет, Гость.
Предлагаем пройти революционный курс по гитаре.
Подарок от PrimaNota.Ru, забирай!