PrimaNota.ru - самый крупный в мире бесплатный архив песенных текстов, аккордов, табулатур и нот


Wolverine - Liar On The Mount - таба, видео

Регистрация Запомнить меня
Войти через:  Facebook Google Twitter Vk Yandex Mail.ru

Wolverine - Liar On The Mount - таба, видео

Печатать
Просмотров: 68
Уроки эстрадного вокала в Санкт-Петербурге
-------------------------------------------------------------------------------
                             LIAR ON THE MOUNT - Wolverine
-------------------------------------------------------------------------------
Tabbed by: Dolo
E-mail: f.dolecki@o2.pl

Tuning: Drop D

Intro only

Rhythm Guitar
e|---------------------------------------------------------------------------|
B|---------------------------------------------------------------------------|
G|---------------------------------------------------------------------------|
D|----7--7---0--6--0---7-7--0--6--7---0--------------------------------------|
A|----7--7---0--6--0---7-7--0--6--7---0--------------------------------------|
D|----7--7---0--6--0---7-7--0--6--7---0--------------------------------------|
             PM PM PM      PM  PM PM

Lead Guitar
e|---------------------------------------------------------------------------|
B|---/10----15--14---11--10--------------------------------------------------|
G|---------------------------------------------------------------------------|
D|--------------------------------------/9--7-6---3--2-----------------------|
A|---------------------------------------------------------------------------|
E|---------------------------------------------------------------------------|


************************************
| PM  palm mute
| /   slide up
| \   slide down
| h   hammer-on
| p   pull-off
| ~   vibrato
| +   harmonic
| x   Mute note
| b   Bend
| pb  Pre-bend
| br  Bend release
| pbr Pre-bend release
| brb Bend release bend

************************************
Добавлено: 09.05.2016
Другие материалы по этой песне:
  • Аккорды и текст

Страница создана 09.05.2016
http://primanota.ru/wolverine/liar-on-mount-chords.htm
Привет, Гость.
Предлагаем пройти революционный курс по гитаре.
Подарок от PrimaNota.Ru, забирай!