PrimaNota.ru - самый крупный в мире бесплатный архив песенных текстов, аккордов, табулатур и нот


Wolftron - Ms Luna Grim - таба, видео

Регистрация Запомнить меня
Войти через:  Facebook Google Twitter Vk Yandex Mail.ru

Wolftron - Ms Luna Grim - таба, видео

Печатать
Просмотров: 87
---------------------------------------------------------------------------
                             MS LUNA GRIM - Wolftron
---------------------------------------------------------------------------
Tabbed by: sarahyangg
Email: sarah.yangg@gmail.com

Tuning: Eb
*sometimes i throw in random extra notes to make it sound less empty
*this song is really flexible, as long as you play the right chords, you can improv on 
notes to pick at.

PRE-INTRO: (live versions)
e|------------------------x-----------x--------x----------x---|
B|---------------------0--x--------0--x--0-----x-------0--x---|
G|---------------7--9-----x-----------x-----0--x----------x---|
D|------5--7--9-----------x------2----x--2-----x-----2----x---|
A|--5/7----------------4--x--2/4------x--4-----x---3------x---|
E|------------------------x-----------x--------x----------x---|


INTRO:
e|--------x---------x--------x---------x------x---------x-----x-----------x---|
B|--0-----x------0--x--3~----x------3--x--2~--x------2--x--2--x----2/3/2--x---|
G|-----0--x---------x-----0--x---------x--2---x---------x--2--x-----------x---|
D|--2-----x----2----x--2-----x----2----x--2---x----2----x--2--x-----------x---|
A|--3-----x---------x--2-----x---------x--0---x--0------x--0--x--0--------x---|
E|--------x--0------x--------x--0------x------x---------x-----x-----------x---|

e|-----x---------x--------x---------x------x---------x-----x---------x---|
B|--0--x------0--x--3~----x------3--x--2~--x------2--x--2--x------2--x---|
G|--0--x---------x-----0--x---------x--2---x---------x--2--x---------x---|
D|--2--x----2----x--2-----x----2----x--2---x----2----x--2--x----2----x---|
A|-----x---------x--2-----x---------x--0---x--0------x--0--x--0------x---|
E|--0--x--0------x--------x--0------x------x---------x-----x---------x---|


VERSE 1:
e|-----x---------x--------x---------x------x---------x-----x---------x---|
B|--0--x------0--x--3-----x------3--x---2--x------2--x--2--x------2--x---|
G|--0--x---------x--0--0--x---------x---2--x---------x--2--x---------x---|
D|--2--x----2----x--2-----x----2----x---2--x----2----x--2--x----2----x---|
A|-----x---------x--------x---------x---0--x--0------x--0--x--0------x---|
E|-----x--0------x--0-----x--0------x------x---------x-----x---------x---|

e|-----x---------x--------x---------x------x---------x--------x---|
B|--0--x------0--x--3-----x------3--x---2--x------2--x--2--2--x---|
G|--0--x---------x--0--0--x---------x---2--x---------x--2--2--x---|
D|--2--x----2----x--2-----x----2----x---2--x----2----x--2--2--x---|
A|-----x---------x--------x---------x---0--x--0------x--0--0--x---|
E|-----x--0------x--0-----x--0------x------x---------x--------x---|

e|--------------------|
B|--------------------|
G|--------------7-----|
D|------5--7--9---9---|
A|--5/7---------------|
E|--------------------|

e|-----x---------x-------x---------x-----x---------x-------x---------x---|
B|--0--x------0--x--0----x------0--x--0--x------0--x--0----x------0--x---|
G|-----x---------x----0--x---------x--0--x---------x----0--x---------x---|
D|--2--x----2----x--2----x----2----x--2--x----2----x--2----x----2----x---|
A|--4--x--4------x--3----x---------x--2--x---------x--3----x--3------x---|
E|-----x---------x-------x--0------x-----x--0------x-------x---------x---|

e|--------x---------x-----0--x---------x--------x---------x---|
B|--0-----x------0--x--3-----x------3--x--0-----x------0--x---|
G|--0--0--x---------x--0-----x---------x--0--0--x---------x---|
D|--2-----x----2----x--2-----x----2----x--2-----x----2----x---|
A|--4-----x--4------x--3-----x--3------x--2-----x--2------x---|
E|--------x---------x--------x---------x--------x---------x---|

e|-------x---------x--------x---------x--------x---------x---|
B|--0----x------0--x--0-----x------0--x--0--0--x------3--x---|
G|----0--x---------x-----0--x---------x--------x---------x---|
D|--2----x----2----x--2-----x----2----x--2-----x----2----x---|
A|--3----x--3------x--4-----x--4------x--4-----x--3------x---|
E|-------x---------x--------x---------x--------x---------x---|


AFTER VERSE 1:
e|-----x---------x------x---------x------x---------x-----x-----------x---|
B|--0--x------0--x--3~--x------3--x--2~--x------2--x--2--x----2/3/2--x---|
G|-----x---------x------x---------x--2---x---------x--2--x-----------x---|
D|--2--x----2----x--2---x----2----x--2---x----2----x--2--x-----------x---|
A|--2--x---------x--2---x---------x--0---x--0------x--0--x--0--------x---|
E|-----x--0------x------x--0------x------x---------x-----x-----------x---|

e|-----x---------x--------x---------x------x---------x-------------|
B|--0--x------0--x--3~----x------3--x--2~--x------2--x--2---2-2m---|
G|--0--x---------x-----0--x---------x--2---x---------x--2---2-2m---|
D|--2--x----2----x--2-----x----2----x--2---x----2----x--2---2-2m---|
A|-----x---------x--2-----x---------x--0---x--0------x--0---0-0m---|
E|--0--x--0------x--------x--0------x------x---------x-------------|


VERSE 2:
e|-----x---------x--------x----------x---------x---------x-----x-----------x---|
B|--0--x------0--x--3--3--x------3~--x---2—-2--x------2--x--2--x----2/3/2--x---|
G|--0--x---------x--0-----x----------x---2-----x---------x--2--x-----------x---|
D|--2--x----2----x--2-----x----2-----x---2-----x----2----x--2--x-----------x---|
A|-----x---------x--------x----------x---0-----x--0------x--0--x--0--------x---|
E|-----x--0------x--0-----x--0-------x---------x---------x-----x-----------x---|

e|-----x---------x--------x---------x------x---------x-----------x---|
B|--0--x------0--x--3-----x------3--x---2--x------2--x—-2--2--2--x---|
G|--0--x---------x--0--0--x---------x---2--x---------x--2-----2--x---|
D|--2--x----2----x--2-----x----2----x---2--x----2----x--2-----2--x---|
A|-----x---------x--------x---------x---0--x--0------x--0-----0--x---|
E|-----x--0------x--0-----x--0------x------x---------x-----------x---|

e|--------------------|
B|--------------------|
G|--------------7-----|
D|------5--7--9---9---|
A|--5/7---------------|
E|--------------------|

e|-----x---------x-------x---------x-----x---------x-------x---------x---|
B|--0--x------0--x--0----x------0--x--0--x------0--x--0----x------0--x---|
G|-----x---------x----0--x---------x--0--x---------x----0--x---------x---|
D|--2--x----2----x--2----x----2----x--2--x----2----x--2----x----2----x---|
A|--4--x--4------x--3----x---------x--2--x---------x--3----x--3------x---|
E|-----x---------x-------x--0------x-----x--0------x-------x---------x---|

e|--------x---------x-----0--x---------x--------x---------x---|
B|--0-----x------0--x--3-----x------3--x--0-----x------0--x---|
G|--0--0--x---------x--0-----x---------x--0--0--x---------x---|
D|--2-----x----2----x--2-----x----2----x--2-----x----2----x---|
A|--4-----x--4------x--3-----x--3------x--2-----x--2------x---|
E|--------x---------x--------x---------x--------x---------x---|

e|-------x---------x--------x---------x-----0--x---------x---|
B|--0----x------0--x--0-----x------0--x--3-----x------3—-x---|
G|----0--x---------x-----0--x---------x--------x---------x---|
D|--2----x----2----x--2-----x----2----x--2-----x----2----x---|
A|--3----x--3------x--4-----x--4------x--3-----x--3------x---|
E|-------x---------x--------x---------x--------x---------x---|


BRIDGE:
e|--------x---------x-------x---------x---|
B|--0--0--x------0--x--0----x------0--x---|
G|--------x---------x----0--x---------x---|
D|--2-----x----2----x--2----x----2----x---|
A|--2-----x--2------x--3----x--3------x---|
E|--------x---------x-------x---------x---|

e|--------x---------x-----0--x---------x-------x---------x---|
B|--0--0--x------0--x--0-----x------0--x--0----x------0--x---|
G|--------x---------x--------x---------x----0--x---------x---|
D|--2-----x----2----x--2-----x----2----x--2----x----2----x---|
A|--4-----x--4------x--4-----x--4------x--2----x--2------x---|
E|--------x---------x--------x---------x-------x---------x---|

e|-------x---------x--------x---------x-----0--x---------x---|
B|--0----x------0--x--0--0--x------0--x--0-----x------0--x---|
G|----0--x---------x--------x---------x--------x---------x---|
D|--2----x----2----x--2-----x----2----x--2-----x----2----x---|
A|--3----x--3------x--4-----x--4------x--4-----x--4------x---|
E|-------x---------x--------x---------x--------x---------x---|

e|--------x---------x-------x---------x-----x---------x---|
B|--0--0--x------0--x--0----x------0--x--0--x------0--x---|
G|--------x---------x----0--x---------x-----x---------x---|
D|--2-----x----2----x--2----x----2----x--2--x----2----x---|
A|--2-----x---------x--3----x--3------x--4--x--4------x---|
E|--------x--0------x-------x---------x-----x---------x---|

Still trying to figure out the last 2 chords here...

*Knock knock knock knock knock knock*


END:
e|--------------------|
B|--------------------|
G|--------------7-----|
D|------5--7--9---9---|
A|--5/7---------------|
E|--------------------|

e|-----x---------x-------x---------x-----x---------x-------x---------x---|
B|--0--x------0--x--0----x------0--x--0--x------0--x--0----x------0--x---|
G|-----x---------x----0--x---------x--0--x---------x----0--x---------x---|
D|--2--x----2----x--2----x----2----x--2--x----2----x--2----x----2----x---|
A|--4--x--4------x--3----x---------x--2--x---------x--3----x--3------x---|
E|-----x---------x-------x--0------x-----x--0------x-------x---------x---|

e|--------x---------x-----0--x---------x--------x---------x---|
B|--0-----x------0--x--3-----x------3--x--0-----x------0--x---|
G|--0--0--x---------x--0-----x---------x--0--0--x---------x---|
D|--2-----x----2----x--2-----x----2----x--2-----x----2----x---|
A|--4-----x--4------x--3-----x--3------x--2-----x--2------x---|
E|--------x---------x--------x---------x--------x---------x---|

e|--------x---------x--------x---------x--------x---------x---|
B|--0--0--x------0--x--0-----x------0--x--0-----x------0--x---|
G|--0-----x---------x-----0--x---------x-----0--x---------x---|
D|--2-----x----2----x--2-----x----2----x--2-----x----2----x---|
A|--3-----x--3------x--4-----x--4------x--4-----x--4------x---|
E|--------x---------x--------x---------x--------x---------x---|

e|--------x---------x-------x---------x---|
B|--0-----x------0--x--0----x------0--x---|
G|-----0--x---------x----0--x---------x---|
D|--2-----x----2----x--2----x----2----x---|
A|--2-----x--2------x--3----x--3------x---|
E|--------x---------x-------x---------x---|

e|--------x---------x--0-----x---------x-------x---------x--0---0---|
B|--0-----x------0--x-----0--x------0--x--0----x------0--x--0---0---|
G|-----0--x---------x--------x---------x----0--x---------x--0---0---|
D|--2-----x----2----x--------x----2----x--2----x----2----x--2---2---|
A|--4-----x--4------x--4-----x--4------x--2----x--2------x--3---4---|
E|--------x---------x--------x---------x-------x---------x----------|


| /  slide
| m  muted slide
| ~  vibrato
| x  Mute note
============================================================================
Добавлено: 24.02.2012
Другие материалы по этой песне:
  • Аккорды и текст

Страница создана 24.02.2012
http://primanota.ru/wolftron/ms-luna-grim-chords.htm
Привет, Гость.
Предлагаем пройти революционный курс по гитаре.
Подарок от PrimaNota.Ru, забирай!