PrimaNota.ru - самый крупный в мире бесплатный архив песенных текстов, аккордов, табулатур и нот


Wolfmother - White Feather - текст песни, таба, видео

Регистрация Запомнить меня
Войти через:  Facebook Google Twitter Vk Yandex Mail.ru

Wolfmother - White Feather - текст песни, таба, видео

Печатать
Просмотров: 126
Уроки эстрадного вокала в Санкт-Петербурге
Авторы музыки: Andrew Stockdale
Авторы текста: Andrew Stockdale
Wolfmother

White Feather

Key

 b : Bend 
 r : Release
 / : Slide into
 \ : Slide out of
 h : Hammer on
 p : Pull off
(-): Ghost note
 v : Vibrato
 x : Mute

_____________________________________________________________________________

Intro

     B      E          

e|---7-7-7---------|---7-7-7------7------|
B|---7-7-7--9------|---7-7-7--9---7--9---|
G|---8-8-8--9------|---8-8-8--9---8--9---|
D|---9-9-9--9------|---9-9-9--9---9--9---|
A|---9-9-9--7------|---9-9-9--7---9--7---|
E|---7-7-7---------|---7-7-7------7------|


     D      A          

e|----------5------|----------5------5---|
B|---7-7-7--5------|---7-7-7--5---7--5---|
G|---7-7-7--6------|---7-7-7--6---7--6---|
D|---7-7-7--7------|---7-7-7--7---7--7---|
A|---5-5-5--7------|---5-5-5--7---5--7---|
E|----------5------|----------5------5---|

_____________________________________________________________________________

Verse

     B     E          

e|---7--7---------|---7--7------7------|
B|---7--7--9------|---7--7--9---7--9---|
G|---8--8--9------|---8--8--9---8--9---|
D|---9--9--9------|---9--9--9---9--9---|
A|---9--9--7------|---9--9--7---9--7---|
E|---7--7---------|---7--7------7------|


     D     A         

e|---------5------|---------5------5---|
B|---7--7--5------|---7--7--5---7--5---|
G|---7--7--6------|---7--7--6---7--6---|
D|---7--7--7------|---7--7--7---7--7---|
A|---5--5--7------|---5--5--7---5--7---|
E|---------5------|---------5------5---|

_____________________________________________________________________________

Chorus


Guitar I

  B     E              

e|7-------------|----------------|
B|7-----9---9---|---9-----9--9---|
G|8-----9---9---|---9-----9--9---|
D|9-----9---9---|---9-----9--9---|
A|9-----7---7---|---7-----7--7---|
E|7-------------|----------------|


  D     A      
     
e|------5---5---|---5-----5--5---|
B|7-----5---5---|---5-----5--5---|
G|7-----6---6---|---6-----6--6---|
D|7-----7---7---|---7-----7--7---|
A|5-----7---7---|---7-----7--7---|
E|------5---5---|---5-----5--5---|
  
                        

Guitar II


e|-----|-----------------------------|-----------------|
B|-----|------12---------------------|-----------------|
G|---11|b(13)------11b(13)r11---9v---|---9v-----9v-9v--|
D|-----|-----------------------------|-----------------|
A|-----|-----------------------------|-----------------|
E|-----|-----------------------------|-----------------|



e|-----|-------------------------------|--------------------|
B|-----|------17-----------------------|--------------------|
G|---16|b(18)-------16b(18)r16---14v---|---14v-----14v-14v--|
D|-----|-------------------------------|--------------------|
A|-----|-------------------------------|--------------------|
E|-----|-------------------------------|--------------------|



e|--------------------------------|------------------|
B|------------------------19b(21)-|--19-17v-17v------|
G|------------------16-18---------|------------------|
D|---------14-16\18---------------|------------------|
A|---14h16------------------------|------------------|
E|--------------------------------|------------------|


Second ending


e|-----|------------------------------|
B|-----|------19----------------------|
G|---18|b(20)------18b(20)r18---16v---|
D|-----|------------------------------|
A|-----|------------------------------|
E|-----|------------------------------|



e|------------------------------------|
B|------------------------------------|
G|------------------------------------|
D|---14h16p14-----14-----14-16-16b(18)|
A|------------h16-----16--------------|
E|------------------------------------|
                              Slow bend

_____________________________________________________________________________

Bridge

  F#         C# 

e|-----------------------|----------------------|
B|11--11--x--------------|----------------------|
G|11--11--x--10-----10---|----------------------|
D|11--11--x--11-----11---|----------------------|
A|9---9---x--11-----11---|---11-13---13-11-11-x-|
E|-----------9------9----|---9--9----9--9--9--x-|


  A          E   

e|-----------------------|----------------------|
B|14--14--x--------------|----------------------|
G|14--14--x--13-----13---|----------------------|
D|14--14--x--14-----14---|----------------------|
A|12--12--x--14-----14---|---14-16---16-14-14-x-|
E|-----------12-----12---|---12-12---12-12-12-x-|

_____________________________________________________________________________

Solo

With wah-wah pedal.

2:00                                                                   2:05
   [1/2]                                             [1]
|---------------------------------------------------14^----12h14-12--------|
|---------------------------------14-14-14-14-14--------------------14-14--|
|--11^-11-9------------9----9h11/------------------------------------------|
|-----------11----9-11---11------------------------------------------------|
|--------------------------------------------------------------------------|
|--------------------------------------------------------------------------|

2:05                                  2:08
                      [1]
|-----------------------------------------|
|--12h14-12----12----14^----14-14---------|
|-----------14--------------------x-9-----|
|-------------------------------------11--|
|-----------------------------------------|
|-----------------------------------------|

Fast & sloppy

2:08                                                                     
   [1/2]
|---------------------------------------------------------------------------|
|---------------------------------------------------------------------------|
|------9h12p9----9h12p9----9h12p9----9h12p9----9h12p9----9h12p9---9h12p9----|
|--11^--------11--------11--------11--------12--------11-------12-----------|
|---------------------------------------------------------------------------|
|--------------------------------------------------------------------[etc..]|

2:12                                                                   2:16
                                                             [1/4]
|--12-9----9--------------------------------------------------------------|
|-------12---12-9-12-9----9---------------------------------------9-------|
|----------------------11---11-9-11-9-------------------------11^---11-9--|
|-------------------------------------11-11-9--------------11-------------|
|---------------------------------------------11-9----9-11----------------|
|--------------------------------------------------11---------------------|

2:17                                                2:22
   [3/4]  [3/4]  [3/4]  [3/4]  [3/4]     [3/4]
|------19-----19-----19-----19-----19------------------|
|--19^----19^----19^----19^----19^-------19^-19-17-17--|
|------------------------------------------------------|
|------------------------------------------------------|
|------------------------------------------------------|
|------------------------------------------------------|

2:22                                                        2:25

|--------------------------------------------------------------|
|-17------------------------------------------------------14---|
|----18-16----16------------------------------------14h16------|
|----------18----18-16-14-----14--------------14h16------------|
|-------------------------16-----16-----14h16------------------|
|--------------------------------------------------------------|

2:25                                                       2:29
    [1]- - ->                   [1]- - ->        [1]
|--14^-^14-^14--14----12-12----14^-----^14v(14)-14^-14-12-14--|
|-------------------------------------------------------------|
|-------------------------------------------------------------|
|-------------------------------------------------------------|
|-------------------------------------------------------------|
|-------------------------------------------------------------|

2:29                                             2:31
    [1]- - - - - - - - - - - - ->
|--14^-^14-^14----^14-^14----^14v(14)-12-----12-----|
|----------------------------------------14-----14--|
|---------------------------------------------------|
|---------------------------------------------------|
|---------------------------------------------------|
|---------------------------------------------------|

2:31                                                         2:35
                                                          [1/2]
|---------------------------------------------------------------|
|--12-14-12----12-----------------------------------------------|
|-----------13----13-11-13----9-11-9----9-------------9-11-11^--|
|------------------------------------11---11--9-11--------------|
|---------------------------------------------------------------|
|---------------------------------------------------------------|

2:35                                                    2:39
  [1/2]- - - ->                                       [1/4]
|-----------------------------------------------------12^--|
|-------------------------9---------------------12-14------|
|--^11-^11-^11[hold]v(11)---------------9h11/13------------|
|------------------------------11--9h11--------------------|
|----------------------------------------------------------|
|----------------------------------------------------------|

2:40                                              2:43
   [1/2][1]- - - - - - - - - - - - - - - - - - - ->
|--14^---^--^14-^14-^14-^14-^14-^14-^14-^14-^14-^14--|
|----------------------------------------------------|
|----------------------------------------------------|
|----------------------------------------------------|
|----------------------------------------------------|
|----------------------------------------------------|
_____________________________________________________________________________

Coda

3:00                       
   B   E    
|---------|
|--7-7-9--|
|--8-8-9--|
|--9-9-9--|
|--9-9-7--|
|--7-7----|
Добавлено: 27.07.2012
Другие материалы по этой песне:
  • Аккорды и текст

Страница создана 27.07.2012
http://primanota.ru/wolfmother/white-feather-chords.htm
Привет, Гость.
Предлагаем пройти революционный курс по гитаре.
Подарок от PrimaNota.Ru, забирай!