PrimaNota.ru - самый крупный в мире бесплатный архив песенных текстов, аккордов, табулатур и нот


Wolfmother - Phoenix - текст песни, таба, видео

Регистрация Запомнить меня
Войти через:  Facebook Google Twitter Vk Yandex Mail.ru

Wolfmother - Phoenix - текст песни, таба, видео

Печатать
Просмотров: 144
Авторы музыки: Andrew Stockdale
Авторы текста: Andrew Stockdale
Transcribed by Danleary

Hello Wolfmother.net!

Standard Tuning

Key

 ^  : Bend [1/4, 1/2, 1, etc.]
 v  : Bring bend back down
 /  : Slide into
 \  : Slide out of
 h  : Hammer on
 p  : Pull Off
(-) : Do not pick note
 =  : Vibrato
 x  : Mute
_____________________________________________________________________________

Intro

Hit the open E instead of the open A the second time through.

0:00                                  0:03
                            [1/4]
|----------------------------------------|
|----------------------------------------|
|----------------------------------------|
|----------------------------------------|
|------14-----12-----11-----11^v(11)-----|
|--0-0----0-0----0-0----0-0----------12--|

0:03                                  0:06
                            [1/4]
|----------------------------------------|
|----------------------------------------|
|----------------------------------------|
|--------------------11-----11^v(11)-----|
|------14-----12--------0-0----------14--|
|--0-0----0-0----0-0---------------------|
                            [Back to 0:00]
_____________________________________________________________________________

Verse

0:13                                            0:16

|--------------------------------------------------|
|--------------------------------------------------|
|--------------------------------------------------|
|--------------------------------------------------|
|--12h14-14-12h14-14-12h14-14-12h14-14-12h14-14-x--|
|--12----12-12----12-12----12-12----12-12----12-x--|

0:16                                           0:19

|-------------------------------------------------|
|-------------------------------------------------|
|-------------------------------------------------|
|-------------------------------------------------|
|--13h15-15-13h15-x-10h12-12-10h12-12-10h12-12-x--|
|--13----13-13----x-10----10-10----10-10----10-x--|

0:19                                            0:22

|--------------------------------------------------|
|--------------------------------------------------|
|--------------------------------------------------|
|--------------------------------------------------|
|--12h14-14-12h14-14-12h14-14-12h14-14-12h14-14-x--|
|--12----12-12----12-12----12-12----12-12----12-x--|

  0:23                       

|-------------------------------------------------|
|-------------------------------------------------|
|-------------------------------------------------|
|-------------------12h14-14-12h14-14-12h14-14-x--|
|--13h15-15-13h15-x-12----12-12----12-12----12-x--|
|--13----13-13----x-------------------------------|
                                     [Back to 0:13]
_____________________________________________________________________________

Chorus

0:52                                                0:56
   G         A         B         C
|------------------------------------------------------|
|--12-12-----14-14-----15-15-----17-17-17-17-17-17-17--|
|--12-12-----14-14-----15-15-----17-17-17-17-17-17-17--|
|--12-12-----14-14-----15-15-----17-17-17-17-17-17-17--|
|--10-10-----12-12-----13-13-----15-15-15-15-15-15-15--|
|------------------------------------------------------|

Mutes & the amount of times he strikes each chord create slight variations
throughout the song.

0:57                                                1:02
   G    D    A    E    B    F    C
|------------------------------------------------------|
|--12--------14--------15--------17-17-17-17-17-17-17--|
|--12---11---14---13---15---14---17-17-17-17-17-17-17--|
|--12---12---14---14---15---15---17-17-17-17-17-17-17--|
|--10---12---12---14---13---15---15-15-15-15-15-15-15--|
|-------10--------12--------13-------------------------|
                                               Repeat 2X
_____________________________________________________________________________

Bridge

2:02                                   2:15

|------------------------------------------|
|------------------------------------------|
|------------------------------------------|
|------------------------------------------|
|--------------------------------------12--|
|--12------13----10------12------13--------|
_____________________________________________________________________________

Solo

2:15

|------------------------------------------------------------15-----|
|-------------------------------------------15-17-17===-17------17--|
|--14====---12----12---------------12-14/16-------------------------|
|--------------14----14------12-14----------------------------------|
|-------------------------------------------------------------------|
|-------------------------------------------------------------------|

    [1]
|--17^-----17-15---------------15--------------------|
|-----------------17-----15h17----17---17===-17====--|
|----------------------------------------------------|
|----------------------------------------------------|
|----------------------------------------------------|
|----------------------------------------------------|

                                        [1]
|-------------------------------------------------------|
|--15---15----------------------------------------------|
|-----16---16---14--12-------12----12--14^----14-12-----|
|-----------------------14------14------------------14--|
|-------------------------------------------------------|
|-------------------------------------------------------|
                                  
                                  [1/2]     
|---------------------------------17^----15-------15-----|
|----------------------------------------------17----17--|
|--------12-----12h14-12^--------------------------------|
|--12h14----14------------14-----------------------------|
|--------------------------------------------------------|
|--------------------------------------------------------|

                         [1]                                [1/4]
|--------15----15-17^---17^------17-15----15----------------15^--|
|--15h17----17-------------------------17----17-17--17---17------|
|----------------------------------------------------------------|
|----------------------------------------------------------------|
|----------------------------------------------------------------|
|----------------------------------------------------------------|

                                                               [1/2]
|-------------------------------------------------------------------|
|--17-15-17-15----15------------------------------------------------|
|--------------16----16-14-12-14-12===------12----12-14-12-----14^--|
|----------------------------------------14----14-------------------|
|-------------------------------------------------------------------|
|-------------------------------------------------------------------|

|----------------------------------------------------|
|----------------------------------------------------|
|--14-12---12----------------------------------------|
|--------14--14-14-14----14--14----14--14------------|
|----------------------------------------------------|
|----------------------------------------------------|

Guitar II enters here, same thing as Guitar I but with varying nuances.

    [1]                     [1]                    [1]   [1]
|------------------------------------------------------------|
|------------------------------------------------------------|
|--14^-14-12-14===---12-14-14^--14-12-14----12-14-14^---14^--|
|------------------------------------------------------------|
|------------------------------------------------------------|
|------------------------------------------------------------|

                      [1]                                       [1]  [1]
|--------------------17^--17-15----15---------------15----15---17^--17^--|
|-------------------------------17----17===---15h17----17----------------|
|--14-12-14====----------------------------------------------------------|
|------------------------------------------------------------------------|
|------------------------------------------------------------------------|
|------------------------------------------------------------------------|
 
                                 {1/4}      [1/4]        [1] 
|--17-15----15-----15----15------15^--------15^-----15--17^--|
|--------17----17-----17----17----------17-------17----------|
|------------------------------------------------------------|
|------------------------------------------------------------|
|------------------------------------------------------------|
|------------------------------------------------------------|

Guitar II breaks off from guitar I for the following bar, which will be 
written as two separate parts.

Guitar I
                                                        [1/2]
|--17-15----15------------------------------------------------|
|--------17----17--15----15-----------------------------------|
|---------------------16----16---14--12-----12-----------14^--|
|----------------------------------------14-----14------------|
|-------------------------------------------------------------|
|-------------------------------------------------------------|

Guitar II
                                                        [1/2]
|-------------------------------------------------------------|
|--15-17-15-17-15-17-15-17------------------------------------|
|--------------------------16-14-12----12-----------12---14^--|
|-----------------------------------14----14-12-14------------|
|-------------------------------------------------------------|
|-------------------------------------------------------------|

Guitar II rejoins guitar I, but the rhythm is noticeably varied and out of
sync in parts.

      [1/2]                       [1/2]   [1/2]   [1/2]  [1/2]  [1/2]  [1/2]
|---------------------------------------------------------------------------|
|--12--------12-------------------------12-----12-----12-----12-----12------|
|-----14^-------12----12----------14^------14^----14^----14^----14^----14^--|
|------------------14----14-12-14-------------------------------------------|
|---------------------------------------------------------------------------|
|---------------------------------------------------------------------------|

Guitar I

|----------------------------------------------|
|----------------------------------------------|
|--14----13----13/14-16--17--16--18-----12-----|
|------------------------------------------12--|
|----------------------------------------------|
|----------------------------------------------|

|-------------------------------------------------------|
|--------------------------------15---------------------|
|--14----13----13/14-16--17--16--------17\16--16\14-14--|
|-------------------------------------------------------|
|-------------------------------------------------------|
|-------------------------------------------------------|

|--------------------------------------------------|
|--------------------------------15---15--15--15\--|
|--14----13----13/14-16--17--16--------------------|
|--------------------------------------------------|
|--------------------------------------------------|
|--------------------------------------------------|

Guitar II

|--13----12---12/13-15----17---15\10--|
|-------------------------------------|
|-------------------------------------|
|-------------------------------------|
|-------------------------------------|
|-------------------------------------|

|--13----12---12/13-15----17---15/20---20--20\--|
|-----------------------------------------------|
|-----------------------------------------------|
|-----------------------------------------------|
|-----------------------------------------------|
|-----------------------------------------------|
_____________________________________________________________________________

Outro
                                         Repeat 4X
|------------------------------------------------------|
|------------------------------------------------------|
|------------------------------------------------------|
|--12------14------15------17-17-17-17-17-17-17-17-17\-|
|--10--12--12--14--13--15--15-15-15-15-15-15-15-15-15\-|
|------10------12------13------------------------------|
_____________________________________________________________________________

Coda

   E
|------|
|------|
|------|
|--12--|
|--12--|
|--10--|
Добавлено: 01.03.2012
Другие материалы по этой песне:
  • Аккорды и текст

Страница создана 01.03.2012
http://primanota.ru/wolfmother/phoenix-chords.htm
Привет, Гость.
Предлагаем пройти революционный курс по гитаре.
Подарок от PrimaNota.Ru, забирай!