PrimaNota.ru - самый крупный в мире бесплатный архив песенных текстов, аккордов, табулатур и нот


Wolfmother - Inside The Mountain - таба, видео

Регистрация Запомнить меня
Войти через:  Facebook Google Twitter Vk Yandex Mail.ru

Wolfmother - Inside The Mountain - таба, видео

Печатать
Просмотров: 105
Band: Wolfmother
Song: Inside the Moutain (Warhol version)
Tuning: Standard
Difficulty: Novice, Solo: intermediate

Hey guys! 'Nother Wolfmother Warhol tab for ya. This is
the Warhol version, so that means that if you are reading this
after Wolfmother's second album has released, this song will have
 changed up a little bit. So remember that in the future! As of now,
 this is the ONLY version of the song, so that is what I must tab by!
This is not my Favorite Wolfmother song... I like it ok, but I'm doing
this because it was requested to me! So if you have a Wolfmother song
you would like tabbed, send me a pm and I'll be glad to tab it for ya!
OK here we go.

This intro thing is played along with the bass guitar to make it sound
nice, deep, and heavy. But if you're playing this alone, you can always
 get a double octaver (like the Digitech Whammy) and have it play
the regular note and an octave down. But, if you don't have one, it'll
still sound fine.
Intro/Thing:

e---------------------------------------------------------------------------|
b---------------------------------------------------------------------------|
g---------------------------------------------------------------------------|
d------------------------------------------------------6-8-8-6h8-8-6h8-8----|
a----------------------------------------------4-6-7-8----------------------|
E-4h6-6-4h6-6-4h6-6----4h6-6-4h6-6-4h6-6-4h6-6------------------------------|


e---------------------------------------------------------------------------|
b---------------------------------------------------------------------------|
g---------------------------------------------------------------------------|
d-------------------------------------6-8-8-6h8-8-6h8-8---------------------|
a-8-6-4-----------------------4-6-7-8-------------------8-6-4---------------|
E-------6-4-4h6-6-4h6-6-4h6-6---------------------------------6-4-----------|

Verse: x3
e---------------------------------------------------------------------------|
b--------------------8-8----------------------------------------------------|
g--------------------8-8----------------------------------------------------|
d-8-8-8-11-11-8-8-8--8-8----------------------------------------------------|
a-8-8-8-11-11-8-8-8--6-6----------------------------------------------------|
E-6-6-6-9--9--6-6-6--6-6----------------------------------------------------|

PreChorus: x1

e---------------------------------------------------------------------------|
b------(6)--------8-------(6)-----------------------------------------------|
g-------6---------8--------6--------6--5-4----------------------------------|
d-8-8-\6-6-8-8-\6-8-8-8-\6-6-8-8-\6-6--5-4----------------------------------|
a-8-8-\6-4-8-8-\6-6-8-8-\6-4-8-8-\6-4--3-2----------------------------------|
E-6-6-\4-4-6-6-\4---6-6-\4---6-6-\4--------6-5-9-8--------------------------|

Now the chorus is interesting. It's disharmonious, which I didn't
 expect from Wolfmother at all! Now the notes listed are what you
basically want to play, and it's what the organ is playing. But instead
 of hitting all the notes correctly, just as I have tabbed them, hit
wrong notes in the spot of 4 or 5. Just slide the note around and miss
 it. That is how it is meant to be played, I promise!!!
Chorus: x1

e---------------------------------------------------------------------------|
b---------------------------------------------------------------------------|
g---------------------------------------------------------------------------|
d-----------------------------------------------------------------10~-13~---|
a---------6-5-9-8---------6-5-9-8---------6-5-9-8---------6-5-9-8-10~-13~---|
E-6-4-9-8---------6-4-9-8---------6-4-9-8---------6-4-9-8----------8~-11~---|

PreVerse: x1

e---------------------------------------------------------------------------|
b---------------------------------------------------------------------------|
g---------------------------------------------------------------------------|
d---------------------------6-8-8-6h8-8-6h8-8-------------------------------|
a-------------------4-6-7-8-------------------8-6-7-------------------------|
E-4h6-6-4h6-6-4h6-6---------------------------------6-4---------------------|

Verse: x3
e---------------------------------------------------------------------------|
b--------------------8-8----------------------------------------------------|
g--------------------8-8----------------------------------------------------|
d-8-8-8-11-11-8-8-8--8-8----------------------------------------------------|
a-8-8-8-11-11-8-8-8--6-6----------------------------------------------------|
E-6-6-6-9--9--6-6-6--6-6----------------------------------------------------|

PreChorus: x1

e---------------------------------------------------------------------------|
b------(6)--------8-------(6)-----------------------------------------------|
g-------6---------8--------6--------6--5-4----------------------------------|
d-8-8-\6-6-8-8-\6-8-8-8-\6-6-8-8-\6-6--5-4----------------------------------|
a-8-8-\6-4-8-8-\6-6-8-8-\6-4-8-8-\6-4--3-2----------------------------------|
E-6-6-\4-4-6-6-\4---6-6-\4---6-6-\4--------6-5-9-8--------------------------|

Chorus: x1

e---------------------------------------------------------------------------|
b---------------------------------------------------------------------------|
g---------------------------------------------------------------------------|
d-----------------------------------------------------------------10~-13~---|
a---------6-5-9-8---------6-5-9-8---------6-5-9-8---------6-5-9-8-10~-13~---|
E-6-4-9-8---------6-4-9-8---------6-4-9-8---------6-4-9-8----------8~-11~---|

The solo is where Andrew Stockdale makes good use of his
Digitech Whammy. Wherever you see a ^ Before a group of notes
are played, that means that he has activated his whammy and is
playing two octaves up. I'll put a v when he goes back down. I'll
try to be as clear as I can, but it's not tough. He' playing the base
notes of the PreVerse, but with little runs in between. Here
it is!

Solo:

e----------------------------------------------------------------------------|
b----------------------------------------------------------------------------|
g-----------------(^)8b10-6---6----------------------------------------------|
d-6-8-8-6-8-8-6-8-8--------8---8(v)-6-8-8-6-8-8-6-8-8-------6h8-8------------|b(feedback)
a-6-8-8-6-8-8-6-8-8-----------------6-8-8-6-8-8-6-8-8-(^)6h8-----------------|
E-4/6-6-4/6-6-4/6-6-----------------4/6-6-4/6-6-4/6-6------------------------|

e---------------------------------------------------------------------------|
b---------------------------------------------------------------------------|
g---------------------------------------------------------------------------|
d-6-8-8-6-8-8-6-8-8-8b-8-*feed------6-8-8-6-8-8-6-8-8---6-8p6---------------|
a-6-8-8-6-8-8-6-8-8-8b-8------back*-6-8-8-6-8-8-6-8-8-8---------------------|
E-4/6-6-4/6-6-4/6-6-----------------4/6-6-4/6-6-4/6-6-----------------------|

e---------------------------------------------------------------------------|
b---------------------------------------------------------------------------|
g---6-8-6-8b10-8-6-------6-8-6-8-8b10-8-6-8~~-(^)8b10-8-6---6-------6-8b10--|
d-8----------------8-6-8----------------------------------8---8-6-8~--------|
a---------------------------------------------------------------------------|
E---------------------------------------------------------------------------|


e--------------------6-6~-8b9-6----------------------------------------------|
b----------------6-9------------9p6---9p6------------------------------------|
g-8-6--------6-8--------------------8-----8-6-------8b10-8-6-----------------|
d-----8~-6-8----------------------------------8-6-8----------7-7-7-7-7-7-7---|(v)
a----------------------------------------------------------------------------|
E----------------------------------------------------------------------------|

e---------------------------------------------------------------------------|
b---------------------------------------------------------------------------|
g---------------------------------------------------8-------------8---------|
d-----------------8---6-8--10~-10/11\10-8----8-10h11--11-10~-10h11--11-10---|
a---------6-6-8-9---9---------------------11--------------------------------|
E-6-6-8-9-------------------------------------------------------------------|

e-------------------------------------------------13-14-18-18-18-18-17-17---|
b------------------------------------13-14-16~-16---------------------------|
g-------8----8/10~-10~-10~-10/15~-15----------------------------------------|
d-10h11---11----------------------------------------------------------------|
a---------------------------------------------------------------------------|
E---------------------------------------------------------------------------|

e-20-21p20p18-21p20p18-21p20p18-21p20p18-21p20p18-21p20p18-21p20p18-21p20p18-|
b----------------------------------------------------------------------------|
g----------------------------------------------------------------------------|
d----------------------------------------------------------------------------|
a----------------------------------------------------------------------------|
E----------------------------------------------------------------------------|


e-21p20p18-21p20p18-21p20p18-21p20p18-22b23-21-------------------------------|
b----------------------------------------------------------------------------|
g----------------------------------------------------------------------------|
d----------------------------------------------------------------------------|
a----------------------------------------------------------------------------|
E----------------------------------------------------------------------------|
 Tremolo pick this part: (I didn't right out all the notes, but when you see lots of the 
notes together, it means tremolo pick them for as long as needed.)
e-21-21-21-21-21-21-20-20-20-18h20-21-21-21-21-20-20-20-20-21-21-21-21------|
b-14-14-14-14-14-14-13-13-13-11h13-14-14-14-14-13-13-13-13-14-14-14-14------|
g---------------------------------------------------------------------------|
d---------------------------------------------------------------------------|
a---------------------------------------------------------------------------|
E---------------------------------------------------------------------------|

Outro: x4

e---------------------------------------------------------------------------|
b---------------------------------------------------------------------------|
g---------------------------------------------------------------------------|
d-6/8-8-6/8-8-6/8-8---------------------------------------------------------|
a-6/8-8-6/8-8-6/8-8---------------------------------------------------------|
E-4/6-6-4/6-6-4/6-6---------------------------------------------------------|

And that's the song! Pretty cool tune.
I don't really like the chorus, but the solo makes
up for it! Enjoy, it's lots of fun! Oh and please rate
5 stars I'll be very thankful!

And remember, if you have a Wolfmother request, leave a
comment on my page or send me a pm and I'll be glad to do it for ya!

-SaintsofNowhere (Cameron)
Добавлено: 12.10.2013
Другие материалы по этой песне:
  • Аккорды и текст

Страница создана 12.10.2013
http://primanota.ru/wolfmother/inside-the-mountain-chords.htm
Привет, Гость.
Предлагаем пройти революционный курс по гитаре.
Подарок от PrimaNota.Ru, забирай!