PrimaNota.ru - самый крупный в мире бесплатный архив песенных текстов, аккордов, табулатур и нот


Wolfmother - In The Morning - текст песни, таба, видео

Регистрация Запомнить меня
Войти через:  Facebook Google Twitter Vk Yandex Mail.ru

Wolfmother - In The Morning - текст песни, таба, видео

Печатать
Просмотров: 146
Авторы музыки: Andrew Stockdale
Авторы текста: Andrew Stockdale
Transcribed by Danleary

Hello Wolfmother.net!

Standard Tuning

Key

 ^  : Bend [1/4, 1/2, 1, etc.]
 v  : Bring bend back down
 /  : Slide into
 \  : Slide out of
 h  : Hammer on
 p  : Pull Off
(-) : Do not pick note
 =  : Vibrato
 T  : Fret with thumb
_____________________________________________________________________________

This one is still a work in progress, but I've got most of it down. Gotta
work out the kinks... but this is the gist of it.
_____________________________________________________________________________

Intro/Verse

Let Ring
|---------------------------------------------------------------------------|
|-----2----3---2--0h2p0-------0----3---2p0-----0-------2----3---2--0h2p0----|
|-------2---------------0-------0----------0h2---0-------2---------------0--|
|---------------------------------------------------------------------------|
|--0------------------------------------------------------------------------|
|--------------------------3------------------------2-----------------------|
                           T                        T  

|---------------------------|
|-----2----3---2p0-----0----|
|-------2----------0h2---2--|
|---------------------------|
|---------------------------|
|--1------------------------|
   T
_____________________________________________________________________________

Bridge

Let Ring
|----------------------------------------------------------------------|
|-----1------1-----1-------1------0------0-------2----3---2p0-----0----|
|-------0------0-----0-------0------0------0-------2----------0h2---0--|
|--3------2------0----------------------------0------------------------|
|-----------------------3------2---------------------------------------|
|-------------------------------------3--------------------------------|
                                      T

|-----------------------------------------------------------|
|-----1------1-----1-------1------0-0-----0------0-------0--|
|-------0------0-----0-------0--------0h2---0------0-0h2----|
|--3------2------0----------------------------0-------------|
|-----------------------3------2----------------------------|
|-----------------------------------------------------------|
_____________________________________________________________________________

Chorus

Guitar I

   A  B-7  A   C    D-7  C      G  A-7  G   D    E-7  D
|-------------------------------0-------0----------------|
|--2---3---2---5-----6---5------0---1---0---7-----8---7--|
|--2---2---2---5-----5---5------0---0---0---7-----7---7--|
|--2---4---2---5-----7---5------0---2---0---7-----9---7--|
|--0-----------0----------------------------0---------0--|
|--------------------------------------------------------|

Guitar II

|--------------------------------------------------------|
|--------------------------------------------------------|
|--------------------------------------------------------|
|--------------------------------------------------------|
|--------------------------------------------------------|
|--------------------------------------------------------|
_____________________________________________________________________________

Climax

   F       C       G       D       A
|--0-0-0---0-0-0---3-3-3---3-3-3----------|
|--1-1-1---1-1-1---0-0-0---2-2-2---2-2-2--|
|--2-2-2---0-0-0---0-0-0---3-3-3---2-2-2--|
|--3-3-3---2-2-2---0-0-0---0-0-0---2-2-2--|
|----------3-3-3---2-2-2-----------0-0-0--|
|------------------3-3-3------------------|
_____________________________________________________________________________

Outro

Guitar I

See Intro/Verse

Guitar II
   
   A   A     F#  G
|-------------------|
|--2---2------------|
|--2---2------------|
|--2---2-----4---5--|
|--0---0-----4---5--|
|------------2---3--|
_____________________________________________________________________________

Solo

Coming soon!

|--------------------------------------------------------|
|--------------------------------------------------------|
|--------------------------------------------------------|
|--------------------------------------------------------|
|--------------------------------------------------------|
|--------------------------------------------------------|
                 
Добавлено: 03.12.2013
Другие материалы по этой песне:
  • Аккорды и текст

Страница создана 19.08.2013
http://primanota.ru/wolfmother/in-the-morning-chords.htm
Привет, Гость.
Предлагаем пройти революционный курс по гитаре.
Подарок от PrimaNota.Ru, забирай!