PrimaNota.ru - самый крупный в мире бесплатный архив песенных текстов, аккордов, табулатур и нот


Wolfmother - From The Forest Of Gnomes - таба, видео

Регистрация Запомнить меня
Войти через:  Facebook Google Twitter Vk Yandex Mail.ru

Wolfmother - From The Forest Of Gnomes - таба, видео

Печатать
Просмотров: 97
Уроки эстрадного вокала в Санкт-Петербурге
		   Artist: Wolfmother
Song: Tales From The Forest Of Gnomes


Intro:
e|-----------------------3-2-0---2------3-2-0--------------------------
B|----2---3-2-0---0------------0----3---------0-2----------------------
G|------2-------0----0----------------2--------------------------------
D|---------------------0---------0-------------------------------------
A|-0--------------------------------------------0----------------------
E|----------------3----------------------------------------------------

Verse:
e|-----------------------3-2-0---2------3-2-0--------------------------
B|-2------3-2-0---0------------0----3---------0-2----------------------
G|----2---------0----0----------------2--------------------------------
D|------2--------------0---------0-------------------------------------
A|-0--------------------------------------------0----------------------
E|----------------3----------------------------------------------------

Interlude:
e|-12----11---12----12-------------------------------------------------
B|-13----12---13----13-------------------------------------------------
G|-14----14---14----14-------------------------------------------------
D|---------------------------------------------------------------------
A|---------------------------------------------------------------------
E|---------------------------------------------------------------------

Chorus:
e|-----9-10-12-10-9h10p9---------7-8-10-8-7h8p7---10---14-15-17-15-----
B|-10--------------------10---------------------8----------------------
G|--------------------------12-----------------------------------------
D|---------------------------------------------------------------------
A|---------------------------------------------------------------------
E|---------------------------------------------------------------------
 |(guitar 2)
e|---------------------------------------------------------------------
B|---------------------------------------------------------------------
G|------------------------------------------------7--------------------
D|-7------------------------5---------------------7--------------------
A|-7------------------------5---------------------5--------------------
E|-5------------------------3------------------------------------------


e|-14h15p14---------9-10-12-10-9-10-9----------------------------------
B|----------15---------------------------------------------------------
G|-------------14------------------------------------------------------
D|---------------------------------------------------------------------
A|---------------------------------------------------------------------
E|---------------------------------------------------------------------
 |(guitar 2)
e|---------------------------------------------------------------------
B|---------------------------------------------------------------------
G|---------------------------------------------------------------------
D|-------------7-------------------------------------------------------
A|-------------7-------------------------------------------------------
E|-------------5-------------------------------------------------------
Outro:
Play around with these notes
e|-12------------------------------------------------------------------
B|----10---------------------------------------------------------------
G|---------------------------------------------------------------------
D|---------------------------------------------------------------------
A|---------------------------------------------------------------------
E|---------------------------------------------------------------------
 |(guitar 2)
e|---------------------------------------------------------------------
B|---------------------------------------------------------------------
G|-5----4----7---------------------------------------------------------
D|-5----4----7----7----------------------------------------------------
A|-3----2----5----7----------------------------------------------------
E|----------------5----------------------------------------------------




Order:

Intro     x1
Verse     x2
Interlude x3
Verse     x2
Chorus    x4
Interlude x3
Verse     x2
Chorus    x4
Outro     x3     
Добавлено: 28.07.2013
Другие материалы по этой песне:
  • Аккорды и текст

Страница создана 28.07.2013
http://primanota.ru/wolfmother/from-the-forest-of-gnomes-chords.htm
Привет, Гость.
Предлагаем пройти революционный курс по гитаре.
Подарок от PrimaNota.Ru, забирай!