PrimaNota.ru - самый крупный в мире бесплатный архив песенных текстов, аккордов, табулатур и нот


Wolfmother - Dimensions - таба, видео

Регистрация Запомнить меня
Войти через:  Facebook Google Twitter Vk Yandex Mail.ru

Wolfmother - Dimensions - таба, видео

Печатать
Просмотров: 103


E|----------------|-----------------|
B|----------------|-----------------|
G|----------------|-----------------|
D|----------------|---------------5-|
A|--7---7---7---7-|-7---7--0h5--7---|
E|--0---0---0---0-|-0---0-----------|

VERSE
E|----------------|-----------------|----------------|---------------|
B|----------------|-----------------|----------------|---------------|
G|----------------|-----------------|----------------|---------------|
D|-14-------------|-14-14-14--------|-7-7-7----------|-14-14-14------|
A|-14-------------|-14-14-14--------|-7-7-7----------|-14-14-14------|
E|-12-------------|-12-12-12--------|-5-5-5----------|-12-12-12------|

all the note above are held for 4 bars each, ive just written them out
on one line but the ones below are played as written
E|----------------|-----------------|----------------|---------------|
B|----------------|-----------------|----------------|---------------|
G|----------------|-----------------|----------------|---------------|
D|-9-9-9----------|-(9)-------------|-7~~------------|-(7)----------|
A|-9-9-9----------|-(9)-------------|-7~~------------|-(7)----------|
E|-7-7-7----------|-(7)-------------|-5~~------------|-(5)----------|

CHORUS w/heavy fuzz
E|-----------------------------------|-----------------------------------|
B|-----------------------------------|-----------------------------------|
G|----------------7-7-9--7-----------|----------------7-7-9--7-----------|
D|------5-6-7-8-9----------9-8-7-6-5-|------5-6-7-8-9----------9-8-7-6-5-|
A|-5-7-------------------------------|-5-7-------------------------------|
E|-----------------------------------|-----------------------------------|

E|----------------|-----------------|----------------|----------------|
B|----------------|-----------------|----------------|----------------|
G|----------------|-----------------|----------------|----------------|
D|-14-------------|-8-7-------------|-12-14----------|-8-7------------|
A|-14-------------|-8-7-------------|-12-14----------|-8-7------------|
E|-12-------------|-6-5-------------|-10-12----------|-6-5------------|
   Purple hazes in the sky 

RIFF ONE
E|----------------|-----------------|----------------|----------------|
B|----------------|-----------------|----------------|----------------|
G|----------------|-----------------|----------------|----------------|
D|--------------5-|---------------5-|--------------5-|--------------5-|
A|----7---0-5h7---|----7---0-5h7----|----7---0-5h7---|----7---0-5h7---|
E|-0--------------|-0---------------|----------------|----------------|
This is by robert cameron jamie durrant's tab is fucked up like a wheel of cheese from corbin,cj,justin and that is all

Добавлено: 09.08.2013
Другие материалы по этой песне:
  • Аккорды и текст

Страница создана 09.08.2013
http://primanota.ru/wolfmother/dimensions-chords.htm
Привет, Гость.
Предлагаем пройти революционный курс по гитаре.
Подарок от PrimaNota.Ru, забирай!