PrimaNota.ru - самый крупный в мире бесплатный архив песенных текстов, аккордов, табулатур и нот


Wolfmother - Demensions long - таба, видео

Регистрация Запомнить меня
Войти через:  Facebook Google Twitter Vk Yandex Mail.ru

Wolfmother - Demensions long - таба, видео

Печатать
Просмотров: 94


 intro
e-----------------------------------------------------
b-----------------------------------------------------
g-----------------------------------------------------
d-----7---7---7---7---7---7--------5-----------------
a-----5---5---5---5---5---5---5h7--------------------
E-----------------------------------------------------
repeat 10 times

verse
e-----------------------------------------------------
b-----------------------------------------------------
g-----------------------------------------------------
d-----7---7---7---7---7---7---7---7------------------
a-----0---0---0---0---0---0---0---0------------------
E----------------------------------------------------
chorus
e-----------------------------------------------------
b-----------------------------------------------------
g-----------------------------------------------------
d----------------------12-12-14-12-------------------
a------10-11-12-13-14--------------14-13-12-10-------
E10-12------------------------------------------12-12

e-----------------------------------------------------
b-----------------------------------------------------
g---------------------12-12-14-12-------------------d------10-11-12-13-14-------------14-13-12-10-------
a-10-12-----------------------------------------12-12
E-------------------------------------------------

e-----------------------------------------------------
b----------------------------------------------------
g-----------------------------------------------------
d----------------------12-12-14-12-------------------
a------10-11-12-13-14--------------14-13-12-10-------
E10-12------------------------------------------12-12
verse
e-----------------------------------------------------
b-----------------------------------------------------
g-----------------------------------------------------
d-----7---7---7---7---7---7---7---7------------------
a-----0---0---0---0---0---0---0---0------------------
E-----------------------------------------------------
repeat 2 times

chorus
e-----------------------------------------------------
b-----------------------------------------------------
g-----------------------------------------------------
d----------------------12-12-14-12-------------------
a------10-11-12-13-14--------------14-13-12-10-------
E10-12------------------------------------------12-12

outro
e-----------------------------------------------------
b-----------------------------------------------------
g-----------------------------------------------------
d-----7---7---7---7---7---7--------5-----------------
a-----5---5---5---5---5---5---5h7--------------------
E-----------------------------------------------------


finish



Tabs by Jamie Durrant.


Добавлено: 11.02.2014
Другие материалы по этой песне:
  • Аккорды и текст

Страница создана 11.02.2014
http://primanota.ru/wolfmother/demensions-long-chords.htm
Привет, Гость.
Предлагаем пройти революционный курс по гитаре.
Подарок от PrimaNota.Ru, забирай!