PrimaNota.ru - самый крупный в мире бесплатный архив песенных текстов, аккордов, табулатур и нот


Wolfchant - Winters Triumph - таба, видео

Регистрация Запомнить меня
Войти через:  Facebook Google Twitter Vk Yandex Mail.ru

Wolfchant - Winters Triumph - таба, видео

Печатать
Просмотров: 68
Band: Wolfchant
Album: Embraced By Fire
Song: Winters Triumph solo (Track 8)
Tabbed by: MetalWarrior34

Tuning: (C F A# D# G C)

Legend:

S: Sixteenth


Tempo: 96

Solo starts at 1:57

Play these two parts below and repeat once.
    
     S S S S S S S S S  S S S S S S  S S S S S S S S  S
|--------------------------------------7---8---7------------------------------|       
|--------8---7---7---10---8---8---10---------------10-------------------------|       
|----9-----7---7---7----7---7---7----7---7---7---7----7-----------------------|       
|------9----------------------------------------------------------------------|       
|-----------------------------------------------------------------------------|       
|-----------------------------------------------------------------------------|

     S S S S S S S S S  S S S S S S  S S S S  S S S S S
|--------------------------------------7--------------------------------------|       
|--------8---7---7---10---8---8---10-------10---8---7-------------------------|       
|----9-----7---7---7----7---7---7----7---7----7---7---7-----------------------|       
|------9----------------------------------------------------------------------|       
|-----------------------------------------------------------------------------|       
|-----------------------------------------------------------------------------| 1x
     

Thanks for viewing this tab!
Добавлено: 23.06.2016
Другие материалы по этой песне:
  • Аккорды и текст

Страница создана 23.06.2016
http://primanota.ru/wolfchant/winters-triumph-chords.htm
Привет, Гость.
Предлагаем пройти революционный курс по гитаре.
Подарок от PrimaNota.Ru, забирай!