PrimaNota.ru - самый крупный в мире бесплатный архив песенных текстов, аккордов, табулатур и нот


Wolfchant - Revenge - таба, видео

Регистрация Запомнить меня
Войти через:  Facebook Google Twitter Vk Yandex Mail.ru

Wolfchant - Revenge - таба, видео

Печатать
Просмотров: 166
e|----------------|----------------|----------------|----------------|
b|----------------|----------------|----------------|----------------|
g|3---3---5---6---|5---3-----------|----3---5---6---|8---6---3---3---|
D|----------------|--------6---3---|6---------------|----------------|
A|----------------|----------------|----------------|----------------|
E|----------------|----------------|----------------|----------------|

e|----------------|----------------|----------------|----------------|
b|----------------|----------------|----------------|----------------|
g|5---6---5---3---|------------3---|3---3---3---5---|6---5---3-------|
D|----------------|6---3---6-------|----------------|------------6---|
A|----------------|----------------|----------------|----------------|
E|----------------|----------------|----------------|----------------|


e|----------------|----------------|----------------|---------------------|
b|----------------|----------------|----------------|---------------------|
g|--------3---5---|6---8---6---10---|10---8---6---5---|6---8---10---------|
D|3---6-----------|----------------|----------------|---------------------|
A|----------------|----------------|----------------|---------------------|
E|----------------|----------------|----------------|---------------------|

e|----------------|----------------|
b|----------------|----------------|
g|6---6---5---6---|3-------3-------|
D|----------------|---6------------|
A|----------------|----------------|
E|----------------|----------------|
Добавлено: 01.11.2013
Другие материалы по этой песне:

Страница создана 06.03.2012
http://primanota.ru/wolfchant/revenge-chords.htm
Привет, Гость.
Предлагаем пройти революционный курс по гитаре.
Подарок от PrimaNota.Ru, забирай!