PrimaNota.ru - самый крупный в мире бесплатный архив песенных текстов, аккордов, табулатур и нот


Wolfchant - Heathen Rise - таба, видео

Регистрация Запомнить меня
Войти через:  Facebook Google Twitter Vk Yandex Mail.ru

Wolfchant - Heathen Rise - таба, видео

Печатать
Просмотров: 28
Band: Wolfchant
Album: Call of the Black Winds (February 2011)
Song: Heathen Rise (Track 6) (Intro)
Tabbed by: MetalWarrior34

Tuning: C F B♭ E♭ G C

Legend:
m (palm mute)
h (hammer-on)
() (ghost note)

Play these two parts below and repeat once:

____________________________________________________________________________________
                                                                                    |
|----------------------------10---10-8-7---------------7--------------------|       |
|---------8h10h12-12--10--8---------------10----8--8------10--8-8---9--10---|       |
|--9-(9)------------------------------------------------------------------7-|       |
|---------------------------------------------------------------------------|       |
|---------------------------------------------------------------------------|       |
|---------------------------------------------------------------------------|       |
                                                                                    |- 1x
|---------------------------------------------------------------------------|       |
|-----7-8--10--8-7-------7--8---7-------------------------------------------|       |
|--9----------------9--------------7--9-------------------------------------|       |
|---------------------------------------------------------------------------|       |
|---------------------------------------------------------------------------|       |
|---------------------------------------------------------------------------|       |
____________________________________________________________________________________|

Play these two parts below and repeat once:

____________________________________________________________________________________
                                                                                    |
|---------7-----------------------------------------------------------------|       |
|-----------8--10---8-7------7--8---7---------------------------------------|       |
|--9--(9)----------------9--------------------------------------------------|       |
|---------------------------------------------------------------------------|       |
|---------------------------------------------------------------------------|       |
|---------------------------------------------------------------------------|       |
                                                                                    |- 1x
|---------------7-----------------------------------------------------------|       |
|-----------------8--10---8-7-----7-----------------------------------------|       |
|--(7)--9--(9)-----------------9-----7---9----------------------------------|       |
|---------------------------------------------------------------------------|       |
|---------------------------------------------------------------------------|       |
|---------------------------------------------------------------------------|       |
____________________________________________________________________________________|

Play these two parts below and repeat once: (These two parts are actually wrong but i am going to
submit a guitar pro tab with the entire song and this part will be corrected there.)

____________________________________________________________________________________
                                                                                    |
|---------------------------------------------------------------------------|       |
|---------------------------------------------------------------------------|       |
|----------------------------------5-------5-------7-------4----------------|       |
|--2-------2-------5-------2-------5-------5-------7-------4----------------|       |
|--2-------2-------5-------2-------3--3-3--3--3-3--5--5-5--2--2-2-----------|       |
|--0--0-0--0--0-0--3--0-0--0--0-0-------------------------------------------|       |
      m m     m m     m m     m m     m m     m m     m m     m m                   |- 1x
                                                                                    |
|---------------------------------------------------------------------------|       |
|---------------------------------------------------------------------------|       |
|----------------------------------5-------5--5-5--2------------------------|       |
|--2-------2-------5-------2-------5-------5--5-5--2------------------------|       |
|--2-------2-------5-------2-------3--3-3--3--3-3--0------------------------|       |
|--0--0-0--0--0-0--3--0-0--0--0-0-------------------------------------------|       |
      m m     m m     m m     m m     m m                                           |
____________________________________________________________________________________|

Thanks for viewing this tab!
Добавлено: 22.10.2015
Вам также может быть интересно:
Другие материалы по этой песне:
  • Аккорды и текст

Страница создана 22.10.2015
http://primanota.ru/wolfchant/heathen-rise-chords.htm
Привет, Гость.
Предлагаем пройти революционный курс по гитаре.
Подарок от PrimaNota.Ru, забирай!