PrimaNota.ru - самый крупный в мире бесплатный архив песенных текстов, аккордов, табулатур и нот


Wolfchant - Call Of The Black Winds - таба, видео

Регистрация Запомнить меня
Войти через:  Facebook Google Twitter Vk Yandex Mail.ru

Wolfchant - Call Of The Black Winds - таба, видео

Печатать
Просмотров: 25
Band: Wolfchant
Album: Call of the Black Winds (February 2011)
Song: Call of the Black Winds (Track 11)
Tabbed by: MetalWarrior34

Tuning: C F B♭ E♭ G C

Legend:
m (palm mute)

|---------------------------------------------------------------------------|
|---------------------------------------------------------------------------|
|---------------------------------------------------------------------------|
|----------9-----------------9--7--9------------7-----------9--9---7--------|
|----------7-----------------7--5--7------------5-----------7--7---5--------|
|-0-0-0-0-------0-0-0-0-0-0-----------0-0-0-0------0-0-0-0------------------|
  m m m m       m m m m m m           m m m m      m m m m

|---------------------------------------------------------------------------|
|---------------------------------------------------------------------------|
|---------------------------------------------------------------------------|
|--------------------------------5---------------5--------------------------|
|--5-5-5---5-5--7----------------3---3-3-3---3-3-3---3-3-3---3-3------------|
|---------------5---5-5-5---5-5---------------------------------------------|
   m m m   m m      m m m   m m      m m m   m m     m m m   m m

|---------------------------------------------------------------------------|
|---------------------------------------------------------------------------|
|---------------------------------------------------------------------------|
|----------9-----------------9--7--9------------7-----------9--9---7--------|
|----------7-----------------7--5--7------------5-----------7--7---5--------|
|-0-0-0-0-------0-0-0-0-0-0-----------0-0-0-0------0-0-0-0------------------|
  m m m m       m m m m m m           m m m m      m m m m

|---------------------------------------------------------------------------|
|---------------------------------------------------------------------------|
|---------------------------------------------------------------------------|
|--------------------------------5---------------5----------------2---------|
|--5-5-5---5-5--7----------------3---3-3-3---3-3-3---3-3-3---3-3--2---------|
|---------------5---5-5-5---5-5-----------------------------------0---------|
   m m m   m m      m m m   m m      m m m   m m     m m m   m m
Добавлено: 22.10.2015
Другие материалы по этой песне:
  • Аккорды и текст

Страница создана 22.10.2015
http://primanota.ru/wolfchant/call-of-black-winds-chords.htm
Привет, Гость.
Предлагаем пройти революционный курс по гитаре.
Подарок от PrimaNota.Ru, забирай!