PrimaNota.ru - самый крупный в мире бесплатный архив песенных текстов, аккордов, табулатур и нот


Wolf People - The Banks Of Sweet Dundee Part 1 - таба, видео

Регистрация Запомнить меня
Войти через:  Facebook Google Twitter Vk Yandex Mail.ru

Wolf People - The Banks Of Sweet Dundee Part 1 - таба, видео

Печатать
Просмотров: 69
-------------------------------------------------------------------------------
                             Banks Of Sweet Dundee Pt.1 - Wolf People
-------------------------------------------------------------------------------
Tabbed by: Milchbubi99
Email: milchbubi99@yahoo.de

Tuning: EADGBe 
it works for me like this, the band apparently play it in DGDGAD tuning with a 
capo on the 2nd fret, but i haven't got around to trying it out yet. 
Chords:
E:    x7999x
E/D#: x6999x

Intro:
e|---------------------------------------------------------------------------|
B|--7/9\7--7\5--5\4--0h4--2----0-0h2-----------------------------------------|
G|---------------------------------------------------------------------------| 3x
D|---------------------------------------------------------------------------| 
A|---------------------------------------------------------------------------|
E|---------------------------------------------------------------------------|

after the second time, the second guitar joins in:
e|-------------------7-----------------6h7-----------------------------------|
B|--9~~~~~~-------------9~~~-------------------------------------------------|
G|---------------------------------------------------------------------------|
D|---------------------------------------------------------------------------|
A|---------------------------------------------------------------------------|
E|---------------------------------------------------------------------------|

first guitar:
e|---------------------------------------------------------------------------|
B|--7/9\7--7\5--5\4--0h4--2----2-0h2p0---------------------------------------|
G|-------------------------------------1-------------------------------------|
D|---------------------------------------------------------------------------|
A|---------------------------------------------------------------------------|
E|---------------------------------------------------------------------------|

second guitar
e|-------------------7----------7-7p6h7--------------------------------------|
B|--9~~~~~~-------------9~~~-------------------------------------------------|
G|---------------------------------------------------------------------------|
D|---------------------------------------------------------------------------|
A|---------------------------------------------------------------------------|
E|---------------------------------------------------------------------------|

the main riff
e|--4-4h7p4---4-------------4-4h7p4---4---------------4-4h7p4---4------------|
B|----------7----4-5----------------7----4-5-4h5h7------------7----4-5-------|
G|-------------------4-6-----------------------------------------------4-6---|
D|---------------------------------------------------------------------------|
A|---------------------------------------------------------------------------|
E|---------------------------------------------------------------------------|

e|---------------------------------------------------------------------------|
B|--4h5-4h5-4-----5h7-5p4----------------------------------------------------|
G|------------6-4---------6--------------------------------------------------|
D|---------------------------------------------------------------------------|
A|---------------------------------------------------------------------------|
E|---------------------------------------------------------------------------|

first guitar (or second, who knows)
e|--4-4h7p4---4--4-4h7p4---4--4-4h7p4-----|
B|----------7------------7----------------|
G|----------------------------------------| 3x
D|----------------------------------------|
A|----------------------------------------|
E|----------------------------------------|
 on the fourth time you play
e|--4-4h7p4---4---------------------------|
B|----------7----4-5/7-4b5----------------|
G|-------------------------6--------------|
D|----------------------------------------|
A|----------------------------------------|
E|----------------------------------------|

meanwhile the second (or first) guitar plays this:
e|---------4p2---------------4p2--------|
B|--0h2~~------4b5p2--0h2~~------4b5p2--|
G|--------------------------------------|
D|--------------------------------------|
A|--------------------------------------|
E|--------------------------------------|

e|---------------------------------------------------------------------------|
B|--4-4h5p4---4--4-4h5p4---4--4-4h5p4--4-4h5p4---4--4/5-5/7-7/9-9------------|
G|----------6------------6---------------------6-----------------------------|
D|---------------------------------------------------------------------------|
A|---------------------------------------------------------------------------|
E|---------------------------------------------------------------------------|

Verse 1:

  C#m          B   C#m            E   B       C#m
It's of a farmer's daughter, so beautiful I'm told,
     E               B                  C#m               G#m 
Her parents died and left her with five hundred pounds in gold,
   C#m        B    C#m        E                 B
She lived with her uncle, the source of all her woe,
  E                   E/D#        B          C#m
As you will hear, this maiden did prove his overthrow.

C#m      B      E B C#m
[the last bar of the main riff]

Her uncle had a plough-boy, Young Mary loved full well,
And in her uncle's garden their tales of love did tell,
There was a wealthy squire who oft came her to see,
But still she loved her plough-boy on the banks of sweet Dundee

Refrain:
F#m
Her uncle rose one morning and then went straightway,
E
and knocked at her bedroom door and unto her thus did say,
F#m
Come rise up fair maiden, a lady you shall be,
E
For the squire is waiting for you on the banks of sweet Dundee
D                                C#m
A fig for all your squires, your lords and dukes likewise.
E                                  F#m
My Williams hand appears to me like diamonds in my eyes

second guitar plays this:
e|--12--12p9----9-------12--12p9-12p9----9-------12--12p9----9---------------|
B|-----------12---10------------------12---10-------------12---10------------|
G|---------------------------------------------------------------------------|
D|---------------------------------------------------------------------------|
A|---------------------------------------------------------------------------|
E|---------------------------------------------------------------------------|

e|---------------------------------------------------------------------------|
B|--10--10p7-10p7-9-7-9b10-7--10--10p7-10p7-9-7-9b10-7-----------------------|
G|---------------------------------------------------------------------------|
D|---------------------------------------------------------------------------|
A|---------------------------------------------------------------------------|
E|---------------------------------------------------------------------------|

Repeat and then play this
e|---------------------------------------------------------------------------|
B|--7--7---7--7---7--------------------7--7---7--7---7-----------------------|
G|-------9------9----8/9--9p8-9-9p8-9-------9------9-------------------------|
D|---------------------------------------------------------------------------|
A|---------------------------------------------------------------------------|
E|---------------------------------------------------------------------------|

Main Riff 2x

C#m - B - G#m - F# - E - C#m
e|---------4p2---------------4p2--------|
B|--0h2~~------4b5p2--0h2~~------4b5p2--|
G|--------------------------------------| 2x
D|--------------------------------------|
A|--------------------------------------|
E|--------------------------------------|

and then the song ends with more bends in the background and fades into the second part.
i'll tab out the second part if enough people want it, but i'm pretty lazy and 
this took me long enough to tab out. 
anyways, i hope you enjoy this tab
cheers
Milchbubi99

http://www.wolfpeople.co.uk/
************************************

| /   slide up
| \   slide down
| h   hammer-on
| p   pull-off
| ~   vibrato
| +   harmonic
| x   Mute note
| b   Bend
| pb  Pre-bend
| br  Bend release
| pbr Pre-bend release
| brb Bend release bend

************************************
Добавлено: 10.09.2013
Вам также может быть интересно:
Другие материалы по этой песне:
  • Аккорды и текст

Страница создана 10.09.2013
http://primanota.ru/wolf-people/the-banks-of-sweet-dundee-part-1-chords.htm
Привет, Гость.
Предлагаем пройти революционный курс по гитаре.
Подарок от PrimaNota.Ru, забирай!