PrimaNota.ru - самый крупный в мире бесплатный архив песенных текстов, аккордов, табулатур и нот


Wolf Biermann - Comandante Che Guevara - таба, видео

Регистрация Запомнить меня
Войти через:  Facebook Google Twitter Vk Yandex Mail.ru

Wolf Biermann - Comandante Che Guevara - таба, видео

Печатать
Просмотров: 411
Уроки эстрадного вокала в Санкт-Петербурге
this is an interpretation of the well-kown song

tabbed by braim

*cappo 3rd frt*


intro:

     Am        Em                        Am

----0-0-1-1-0---0-0-1-1-0-----------------0-------------|
----1-1-1-1-1---0-0-0-0-0-----------------1-------------|
----2-2-2-2-2---0-0-0-0-0---repeat--------2-------------|
----2-2-2-2-2---2-2-2-2-2-------ends-with-2-------------|
--0-0-0-0-0-0---2-2-2-2-2-----------------0-------------|
--------------0-0-0-0-0-0-------------------------------|

intro/verse:

              Am          E         Asus4   E
---1-0-------------0-------0----1-0---------0------0-0x-|
-3-----3-1-3-------1-------0--3-----3-3-3----0-----0-0x-|
-----------------2-2-------1--------2-2-2-----1----1-1x-|
---------------2---------2----------2-2-2------2---2-2x-|
-------------0---------2------------0-0-0-------2--2-2x-|
---------------------0--------------------0------0-0-0x-|

      C  Am       G        F                E
-------0-0-0-xx---3-3-3-xx---1-1--1-1--1-1--0-0-0-|
-------1-1-1-xx---3-3-3-xx---1-1--1-3--1-1--0-0-0-|
-------0-2-2-xx---4-4-4-xx---2-2--2-2--2-2--1-1-1-|
-------2-2-2-xx---5-5-5-xx-3-3-3-------3-3--2-2-2-|
-0-2-3-3-0-0-xx---5-5-5-xx-3-3-3-------3-3--2-2-2-|
----------------0-3-3-3-xx-1-1-1-------1-1--0-0-0-|

chorus:

-0--0-0-1-3-1--0--0-0------------------------|
-1--1-1-1-1-1--0--0-0------------------------|
-2--2-2-2-2-2--1--1-1--repeat----------------|
-2--2-2-2-2-2--2--2-2------------------------|
-0--0-0-0-0-0--2--2-2------------------------|
---------------0--0-0------------------------|
"uns bleibt, was gut war und klar war"..


*You'll find the org version only at ultimate-guitar.com*

interlude(i was too lazy to tab the beginning)

---0-------0-----0-----0--------------|
---1-------1-----0-----0--------------|
---2-----0-------1-----1--->intro-----|
-----------------------2--------------|
-0---0-3-----0-2-------2--------------|
-------------------0-0-0--------------|


CHORUS:

     Am                         E
Uns bleibt, was gut war und klar war:
Am                       E
Dass man bei dir immer durchsah
Am                       G
und Liebe, Hass, doch nie Furcht sah
F                    E
comandante Ché Guevara


VERSE *(play the "intro/verse" part)*

Sie fürchten dich, und wir lieben
dich vorn im Kampf, wo der Tod lacht,
wo das Volk Schluss mit der Not macht.
Nun bist du weg - und doch geblieben.

Uns bleibt, was gut war und klar war:
Dass man bei dir immer durchsah
und Liebe, Hass, doch nie Furcht sah
comandante Ché Guevara.

Und bist kein Bonze geworden,
kein hohes Tier, das nach Geld schielt
und vom Schreibtisch aus den Helden spielt
in feiner Kluft mit alten 0rden.

Uns bleibt, was gut war und klar war:
Dass man bei dir immer durchsah
und Liebe, Hass, doch nie Furcht sah
comandante Ché Guevara.

Ja, grad die Armen der Erde,
die brauchen mehr als zu fressen
und das hast du nie vergessen,
dass aus Menschen Menschen werden.

Uns bleibt, was gut war und klar war:
Dass man bei dir immer durchsah
und Liebe, Hass, doch nie Furcht sah
comandante Ché Guevara.

Der rote Stern an der Jacke,
im schwarzen Bart die Zigarre,
Jesus Christus mit der Knarre
- so führt dein Bild uns zur Attacke.

Uns bleibt, was gut war und klar war:
Dass man bei dir immer durchsah
und Liebe, Hass, doch nie Furcht sah
comandante Ché Guevara.

HASTA LA VICTORIA SIEMPRE
Добавлено: 18.03.2012
Другие материалы по этой песне:
  • Аккорды и текст

Страница создана 18.03.2012
http://primanota.ru/wolf-biermann/comandante-che-guevara-chords.htm
Привет, Гость.
Предлагаем пройти революционный курс по гитаре.
Подарок от PrimaNota.Ru, забирай!