PrimaNota.ru - самый крупный в мире бесплатный архив песенных текстов, аккордов, табулатур и нот


Wolf Alice - She - таба, видео

Регистрация Запомнить меня
Войти через:  Facebook Google Twitter Vk Yandex Mail.ru

Wolf Alice - She - таба, видео

Печатать
Просмотров: 61
Новый альбом группы 'Черный Кузнец' по культовому сериалу 'Сверхъестественное'!
                                     WOLF ALICE -  SHE


[Intro - 00:01-00:15]

e|-------------|
B|-------------|
G|-------------|
D|-------------| x16
A|-2-2-3-2-2---|
E|-------------|


[Verse 1 - 00:15-00:43]

  PM------------|
e|----------------|
B|----------------|
G|----------------| x16 [release PM on 6th and 14th measure]
D|-9-9-7-4-2-0----|
A|-------------2--|
E|----------------|


[Chorus - 00:43-01:06]

e|-----------------|---------|----------|----------------|---------|--------------|
B|-----------------|---------|----------|----------------|---------|--------------|
G|--9-9-9-9-9-9-7-9|-9b-7---7|----------|-9-9-9-9-9-9-7-9|-9b-7---7|---7----------|
D|-----------------|------9--|-9-7-7-9-9|----------------|------9--|-9---9-9-9----|
A|-----------------|---------|----------|----------------|---------|--------------|
E|-----------------|---------|----------|----------------|---------|--------------|

e|-----------------|---------|----------|----------------|----------------|--------------|-------|
B|-----------------|---------|----------|----------------|----------------|--------------|-------|
G|-9-9-9-9-9-9-7-9-|9b-7---7-|----------|----------------|----------------|--------------|-------|
D|-----------------|-----9---|9-7-7-9-9-|-9-9-9-9-9-9-9-9|-9-9-9-9-9-9-9-9|-8-8-8-8-8-8-8|-8/1---|
A|-----------------|---------|----------|----------------|----------------|--------------|-------|
E|-----------------|---------|----------|----------------|----------------|--------------|-------|


[Verse 2 - 01:06-01:37]

(Guitar 1)
e|-------------|
B|-------------|
G|-------------|
D|-------------| x12
A|-2-2-3-2-2---|
E|-------------|

(Guitar 2)
e|-10--7-|--------|-10--7-|--------|-10--7--|
B|-------|--------|-------|--------|--------|
G|-------|-10b--7-|-------|-10b--7-|--------|
D|-------|--------|-------|--------|--------|
A|-------|--------|-------|--------|--------|
E|-------|--------|-------|--------|--------|

"I'm a city girl born and raised..." only vocals [instrument break]

(Guitar 1)
e|-------------|
B|-------------|
G|-------------|
D|-------------| x8
A|-2-2-3-2-2---|
E|-------------|

(Guitar 2)
e|-10--7-|--------|-10--7-|--------|-10--7--|
B|-------|--------|-------|--------|--------|
G|-------|-10b--7-|-------|-10b--7-|--------|
D|-------|--------|-------|--------|--------|
A|-------|--------|-------|--------|--------|
E|-------|--------|-------|--------|--------|


[Bridge - 01:37-02:19]

e|-------|----|---------|
B|-------|----|---------|
G|---11--|----|---------|
D|-------|-9--|-12------| x6
A|-------|----|---------|
E|-------|----|---------|


[Instrumental - 02:19-02:32]

(Guitar 1)
e|-------------|
B|-------------|
G|-------------|
D|-------------| x16
A|-2-2-3-2-2---|
E|-------------|

(Guitar 2)
e|-10--7-|--------|-10--7-|--------|
B|-------|--------|-------|--------|
G|-------|-10b--7-|-------|-10b--7-|
D|-------|--------|-------|--------| x2
A|-------|--------|-------|--------|
E|-------|--------|-------|--------|


[Chorus - 02:32-3:00]

e|-----------------|---------|----------|----------------|---------|--------------|
B|-----------------|---------|----------|----------------|---------|--------------|
G|--9-9-9-9-9-9-7-9|-9b-7---7|----------|-9-9-9-9-9-9-7-9|-9b-7---7|---7----------|
D|-----------------|------9--|-9-7-7-9-9|----------------|------9--|-9---9-9-9----|
A|-----------------|---------|----------|----------------|---------|--------------|
E|-----------------|---------|----------|----------------|---------|--------------|

e|-----------------|---------|----------|----------------|---------|----------|
B|-----------------|---------|----------|----------------|---------|----------|
G|-9-9-9-9-9-9-7-9-|9b-7---7-|----------|-9-9-9-9-9-9-7-9|9b-7---7-|----------|
D|-----------------|-----9---|9-7-7-9-9-|----------------|-----9---|9-7-7-9-9-|
A|-----------------|---------|----------|----------------|---------|----------|
E|-----------------|---------|----------|----------------|---------|----------|

e|----------------|----------------|--------------|-------|
B|----------------|----------------|--------------|-------|
G|----------------|----------------|--------------|-------|
D|-9-9-9-9-9-9-9-9|-9-9-9-9-9-9-9-9|-8-8-8-8-8-8-8|-8/1---|
A|----------------|----------------|--------------|-------|
E|----------------|----------------|--------------|-------|


LYRICS AND ELLIE'S CHORDS


[Verse 1]

N.C
Made Dirty, blade don't care, 
I'll take anything
Watch me
N.C.
Take what you will,
Wear like a stain,
Always think of her
'Cause she was sent for 


[Chorus]
        G         E
It's so easy to rebel
(She knows, she knows, she knows)
         G           E
And then celebrate myself
(She knows, she knows, she knows)
       G            E
I wish She was like you
(She knows, she knows, she knows)
       G
I wish I was you
     A    E
(She knows)


[Verse 2]

Bm

Bm
She's got a boyfriend in a band
And they do more than just hold hands,
So, so quiet, so, so pretty
From the country, loves the city

N.C.
I'm a city girl born and raised
Dust in the cracks and filled with rage

Bm
Well, you can be my second hand, 
My soft coo coo when I go to bed,
Do you tell lies , do you do tricks
Do you hate your dad, is your mum a bitch

N.C.
So quiet and pretty
She's laughing, really


[Bridge]

N.C.
I had a lover, I had a friend
I don't deliver nothing for them
You having fevers or bad dreams
I'm having neither, just live and breathe

I had a lover, I had a friend
I don't deliver nothing for them
You having fevers or bad dreams
I'm having neither, just live and breathe


[Instrumental]

Bm


[Chorus]

        G         E
It's so easy to rebel
(She knows, she knows, she knows)
         G           E
And then celebrate myself
(She knows, she knows, she knows)
       G            E
I wish she was like you
(She knows, she knows, she knows)
       G            E
I wish she was like you
(She knows, she knows, she knows)
       G
I wish I was you
     A     E
(She knows)

Bm

************************************

| b   Bend
| /   Slide up
| PM  Palm mute

************************************
Добавлено: 19.06.2018
Другие материалы по этой песне:
  • Аккорды и текст

Страница создана 19.06.2018
http://primanota.ru/wolf-alice/she-chords.htm
Привет, Гость.
Предлагаем пройти революционный курс по гитаре.
Подарок от PrimaNota.Ru, забирай!