PrimaNota.ru - самый крупный в мире бесплатный архив песенных текстов, аккордов, табулатур и нот


Woe Of Tyrants - Kingdom Of Might Dawn In The Darkness - таба, видео

Регистрация Запомнить меня
Войти через:  Facebook Google Twitter Vk Yandex Mail.ru

Woe Of Tyrants - Kingdom Of Might Dawn In The Darkness - таба, видео

Печатать
Просмотров: 69
This is the left speaker only i believe, Enjoy!!
Update 3/5/09 (adding the intro Solo at bottom)

Eb :------------------------|------------------------|
Bb :------------------------|------------------------|
Gb :------------------------|------------------------|
Db :------------------------|0-----------------------|
Ab :------------------------|0-----------------------|
Db :------------------------|0-----------------------|

Eb :------------------------|--------------------------|
Bb :------------------------|--------------------------|
Gb :------------------------|--------------------------|
Db :------------7-----------|------5-----------/10-----|
Ab :------------5-----------|------3-----------/-8-----|
Db :------------*-----------|--------------------------|

Eb :-------------------------|------------------------|
Bb :-------------------------|------------------------|
Gb :-------------------------|------------------------|
Db :\3-----------------------|------------3-----3-*3-*|
Ab :\1-----------------------|------------1-----1-*1-*|
Db :-------------------------|------------------------|

Eb :------------------------|------------------------|
Bb :------------------------|------------------------|
Gb :------------------------|------------------------|
Db :3-*3-*2-----2-*2-*3-----|5-----------------------|
Ab :1-*1-*0-----0-*0-*1-----|3-----------------------|
Db :------------------------|------------------------|

Eb :------------------------|------------------------|
Bb :------------------------|------------------------|
Gb :------------------------|------------------------|
Db :------------5-----------|------3-----------5-----|
Ab :------------3-----------|------1-----------3-----|
Db :------------------------|------------------------|

Eb :------------------------|------------------------|
Bb :------------------------|------------------------|
Gb :------------------------|------------------------|
Db :7-----7-*7-*7-*7--*-----|------------7-----7-*7-*|
Ab :5-----5-*5-*5-*5--0-----|0--0--0--0--5-----5-*5-*|
Db :------------------0-----|0--0--0--0--*-----------|

Eb :----------------------------|------------------------|
Bb :----------------------------|------------------------|
Gb :----------------------------|------------------------|
Db :7-*7--*---------------------|0-----------------------|
Ab :5-*5--0-----0-0-0-*-0-0-0-*-|0-----------------------|
Db :------0-----0-0-0-*-0-0-0-*-|0-----------------------|

Eb :------------------------|--------------------------|
Bb :------------------------|--------------------------|
Gb :------------------------|--------------------------|
Db :------------7-----------|------5-----------/10-----|
Ab :------------5-----------|------3-----------/-8-----|
Db :------------*-----------|--------------------------|

Eb :-------------------------|------------------------|
Bb :-------------------------|------------------------|
Gb :-------------------------|------------------------|
Db :\3-----------------------|------------3-----3-*3-*|
Ab :\1-----------------------|------------1-----1-*1-*|
Db :-------------------------|------------------------|

Eb :------------------------|------------------------|
Bb :------------------------|------------------------|
Gb :------------------------|------------------------|
Db :3-*3-*2-----2-*2-*3-----|5-----------------------|
Ab :1-*1-*0-----0-*0-*1-----|3-----------------------|
Db :------------------------|------------------------|

Eb :------------------------|------------------------|
Bb :------------------------|------------------------|
Gb :------------------------|------------------------|
Db :------------5-----5-*5-*|5-*5-*3-----3-*3-*5-----|
Ab :------------3-----3-*3-*|3-*3-*1-----1-*1-*3-----|
Db :------------------------|------------------------|

Eb :------------------------|------------------------|
Bb :------------------------|------------------------|
Gb :------------------------|------------------------|
Db :7-----7-*7-*7-*7--*-----|------------7-----7-*7-*|
Ab :5-----5-*5-*5-*5--0-----|0-*0-*0-*0--5-----5-*5-*|
Db :------------------0-----|0-*0-*0-*0--*-----------|

Eb :----------------------------|------------------------|
Bb :----------------------------|------------------------|
Gb :----------------------------|------------------------|
Db :7-*7--*---------------------|0-----------------------|
Ab :5-*5--0-----0-0-0-*-0-0-0-*-|0-----------------------|
Db :------0-----0-0-0-*-0-0-0-*-|0-----------------------|

Eb :------------------------|--------------------------|
Bb :------------------------|--------------------------|
Gb :------------------------|--------------------------|
Db :------------7-----------|------5-----------/10-----|
Ab :------------5-----------|------3-----------/-8-----|
Db :------------*-----------|--------------------------|

Eb :-------------------------|------------------------|
Bb :-------------------------|------------------------|
Gb :-------------------------|------------------------|
Db :\3-----------------------|------------3-----3-*3-*|
Ab :\1-----------------------|------------1-----1-*1-*|
Db :-------------------------|------------------------|

Eb :------------------------|------------------------|
Bb :------------------------|------------------------|
Gb :------------------------|------------------------|
Db :3-*3-*2-----2-*2-*3-----|5-----------------------|
Ab :1-*1-*0-----0-*0-*1-----|3-----------------------|
Db :------------------------|------------------------|

Eb :------------------------|------------------------|
Bb :------------------------|------------------------|
Gb :------------------------|------------------------|
Db :------------5-----------|------3-----------5-----|
Ab :------------3-----------|------1-----------3-----|
Db :------------------------|------------------------|

Eb :------------------------|------------------------|
Bb :------------------------|------------------------|
Gb :------------------------|------------------------|
Db :7-----7-*7-*7-*7--*-----|------------7-----7-*7-*|
Ab :5-----5-*5-*5-*5--0-----|0-*0-*0-*0--5-----5-*5-*|
Db :------------------0-----|0-*0-*0-*0--*-----------|

Eb :----------------------------|----------------|--------------------|
Bb :----------------------------|----------------|--------------------|
Gb :----------------------------|----------------|--------------------|
Db :7-*7--*---------------------|----------------|--------------------|
Ab :5-*5--0-----0-0-0-*-0-0-0-*-|0-*-------------|--------0-0-0-0-0-*-|
Db :------0-----0-0-0-*-0-0-0-*-|0-*-------------|--------0-0-0-0-0-*-|

Eb :-----------------------|-------------------------|
Bb :-----------------------|-------------------------|
Gb :-----------------------|-------------------------|
Db :-----------------------|-------------------------|
Ab :5-5-5-5-5-5-5-5-7-8-8-8|8-8-8-8-7-5-3-3-3-3-3-3-3|
Db :-----------------------|-------------------------|

Eb :----------------------|------------------------|
Bb :----------------------|------------------------|
Gb :----------------------|------------------------|
Db :----------------------|7-7-7-7-7-7-7--*--------|
Ab :3-5-7-7-7-7-7-7-7-5-3-|*-------------10-8-7-7-7|
Db :----------------------|------------------------|

Eb :--------------------------------|----------------------|
Bb :--------------------------------|----------------------|
Gb :--------------------------------|----------------------|
Db :------------10-10-10-10-10-10-10|8-7-5-5-5-5-5-5-5-5-7-|
Ab :7-7-7-7-5-7--*------------------|----------------------|
Db :--------------------------------|----------------------|

Eb :-----------------------|-------------------------|
Bb :-----------------------|-------------------------|
Gb :-----------------------|-------------------------|
Db :8-8-8-8-8-8-8-7-5-3-3-3|3-3-3-3-3-5-7-7-7-7-7-7-7|
Ab :-----------------------|-------------------------|
Db :-----------------------|-------------------------|

Eb :----------------------|----------------------|-----------------------|
Bb :----------------------|----------------------|-----------------------|
Gb :----------------------|----------------------|-----------------------|
Db :5-3-2-2-2-2-2-2-2-2-3-|5-5-5-5-5-5-5-3-2-*---|------5---*------------|
Ab :----------------------|------------------0---|12\---3---5-5-5-5-5-5-5|
Db :----------------------|------------------0---|12\---*----------------|

Eb :----------------------|-----------------------|
Bb :----------------------|-----------------------|
Gb :----------------------|-----------------------|
Db :----------------------|-----------------------|
Ab :5-7-8-8-8-8-8-8-8-7-5-|3-3-3-3-3-3-3-3-5-7-7-7|
Db :----------------------|-----------------------|

Eb :-------------------------|-----------------------|
Bb :-------------------------|-----------------------|
Gb :-------------------------|-----------------------|
Db :------------7-7-7-7-7-7-7|-*---------------------|
Ab :7-7-7-7-5-3-*------------|10-8-7-7-7-7-7-7-7-5-7-|
Db :-------------------------|-----------------------|

Eb :------------------------------|-------------------------|
Bb :------------------------------|-------------------------|
Gb :------------------------------|-------------------------|
Db :10-10-10-10-10-10-10-8-7-5-5-5|5-5-5-5-5-7-8-8-8-8-8-8-8|
Ab :-*----------------------------|-------------------------|
Db :------------------------------|-------------------------|

Eb :----------------------|-----------------------|
Bb :----------------------|-----------------------|
Gb :----------------------|-----------------------|
Db :7-5-3-3-3-3-3-3-3-3-5-|7-7-7-7-7-7-7-5-3-2-2-2|
Ab :----------------------|-----------------------|
Db :----------------------|-----------------------|

Eb :-------------------------|------------------|----------------|
Bb :-------------------------|------------------|----------------|
Gb :-------------------------|------------------|----------------|
Db :2-2-2-2-2-3-5-5-5-5-5-5-5|3-2-*---------5---|*-----7-*---8-*-|
Ab :-------------------------|----0---12\---3---|5*5*5**-5*5**-5*|
Db :-------------------------|----0---12\---*---|----------------|

Eb :-----------------|------------------|------------------|
Bb :-----------------|------------------|------------------|
Gb :-----------------|------------------|------10-*---12-*-|
Db :7-*-5-7-*-----10-|*---12-*-10-*-8-7-|8*8*8*-*-8*8*-*-8*|
Ab :*-5**---8*8*8*-*-|8*8*-*-8*-*-8**---|------------------|
Db :-----------------|------------------|------------------|

Eb :------------------|-------------------|----------------|
Bb :------------------|-------------------|----------------|
Gb :10-*-9-10-*-----9-|*---10-*-9-*-------|----------------|
Db :-*-8**----7*7*7**-|7*7*-*-7**-7*10-~--|*-----7-*---8-*-|
Ab :------------------|-------------------|5*5*5**-5*5**-5*|
Db :------------------|-------------------|----------------|

Eb :-----------------|------------------|------------------|
Bb :-----------------|------------------|------------------|
Gb :-----------------|------------------|------10-*---12-*-|
Db :7-*-5-7-*-----10-|*---12-*-10-*-8-7-|8*8*8*-*-8*8*-*-8*|
Ab :*-5**---8*8*8*-*-|8*8*-*-8*-*-8**---|------------------|
Db :-----------------|------------------|------------------|

Eb :------------------|-------------------|----------------|
Bb :------------------|-------------------|----------------|
Gb :10-*-9-10-*-----9-|*---10-*-9-*-------|----------------|
Db :-*-8**----7*7*7**-|7*7*-*-7**-7*10-~--|*---------------|
Ab :------------------|-------------------|5-------5-7-8---|
Db :------------------|-------------------|----------------|

Eb :----------------|----------------|----------------|-----------------|
Bb :----------------|----------------|----------------|-----------------|
Gb :----------------|----------------|----------------|-----------------|
Db :----------------|----------------|7-------5-*-----|----*---10-------|
Ab :----7-5-3-------|3-5-7-------5-3-|*---------8-7---|----5-7--*-------|
Db :----------------|----------------|----------------|-----------------|

Eb :------------------|------------------|-------------------|
Bb :------------------|------------------|-------------------|
Gb :------------------|------------------|-------------------|
Db :8-7-5-----5-5-5*7-|8-----8-8-7*5-3---|--3-3-3*5-7-----7-7|
Ab :------------------|------------------|-------------------|
Db :------------------|------------------|-------------------|

Eb :------------------|------------------|----------------------|
Bb :------------------|------------------|----------------------|
Gb :------------------|------------------|----------------9--*--|
Db :5*3-2-----2-2-2*3-|5-----5-5-3*2-*---|------5---*--7--*--7--|
Ab :------------------|--------------0---|12\---3---5--*--------|
Db :------------------|--------------0---|12\---*---------------|

Eb :------------------------|-------------------------|
Bb :------------------------|-------------------------|
Gb :5--*--------9--*--5--*--|9--7--5--*---------------|
Db :*--7--*--7--*--7--*--7--|*--------9--7--5--*--10--|
Ab :------5--*--------------|------------------8---*--|
Db :------------------------|-------------------------|

Eb :------------------------------|-----------------------------|
Bb :------------------------------|-----------------------------|
Gb :12---*--9---*---------12---*--|9---*--12--10--9---*---------|
Db :-*--10--*--10--*--10---*--10--|*--10---*---------12--10--9--|
Ab :---------------8---*----------|-----------------------------|
Db :------------------------------|-----------------------------|

Eb :--------------------------------|----------------------------|
Bb :--------------------------------|----------------------------|
Gb :--------14---*--10---*----------|14---*--10---*--14-12-10--*-|
Db :-*--12---*--12---*--12---*--12--|-*--12---*--12---*-------14-|
Ab :10---*------------------10---*--|----------------------------|
Db :--------------------------------|----------------------------|

Eb :----------------------|-----------------------|------------------------|
Bb :----------------------|-----------------------|------------------------|
Gb :--------------9-10-12-|10-9--*----------9--*--|5--*--------9--*--5--*--|
Db :12-10-9-10-12-*-------|-----12-10-*--7--*--7--|*--7--*--7--*--7--*--7--|
Ab :----------------------|-----------5--*--------|------5--*--------------|
Db :----------------------|-----------------------|------------------------|

Eb :-------------------------|------------------------------|
Bb :-------------------------|------------------------------|
Gb :9--7--5--*---------------|12---*--9---*---------12---*--|
Db :*--------9--7--5--*--10--|-*--10--*--10--*--10---*--10--|
Ab :------------------8---*--|---------------8---*----------|
Db :-------------------------|------------------------------|

Eb :-----------------------------|--------------------------------|
Bb :-----------------------------|--------------------------------|
Gb :9---*--12--10--9---*---------|--------14---*--10---*----------|
Db :*--10---*---------12--10--9--|-*--12---*--12---*--12---*--12--|
Ab :-----------------------------|10---*------------------10---*--|
Db :-----------------------------|--------------------------------|

Eb :----------------------------|----------------------|
Bb :----------------------------|----------------------|
Gb :14---*--10---*--14-12-10--*-|--------------9-10-12-|
Db :-*--12---*--12---*-------14-|12-10-9-10-12-*-------|
Ab :----------------------------|----------------------|
Db :----------------------------|----------------------|

Eb :---------------------|----------------|------------------|
Bb :---------------------|----------------|------------------|
Gb :10-9--*--------------|----5-*---7-*---|------------------|
Db :-----12-10-*-------8*|7*8*--8*7*--8*7*|--------8-7-5-3-5-|
Ab :-----------0*0-0-0*--|----------------|5*5-5-5*----------|
Db :-----------0*0-0-0*--|----------------|------------------|

Eb :------------------|----------------|------------------|
Bb :------------------|----------------|------------------|
Gb :------------------|----5-*---7-*---|------------------|
Db :7-5-3-*---------8*|7*8*--8*7*--8*7*|--------8-7-5-3-5-|
Ab :------7-5*5-5-5*--|----------------|5*5-5-5*----------|
Db :------------------|----------------|------------------|

Eb :---------------------|-----------------------------|
Bb :---------------------|-----------------------------|
Gb :---------------------|-----------------------------|
Db :7-5-3-*-3-*----------|--------5-*------------------|
Ab :------7-1-1-1-1-1-1-1|1-1-1-1-3-3-3-3-3-3-3-3-3-3-3|
Db :---------------------|-----------------------------|

Eb :--------------------------|------------------|----------------|
Bb :--------------------------|------------------|----------------|
Gb :--------------------------|------------------|----5-*---7-*---|
Db :2-*-------------------5---|*-5-----*-------8*|7*8*--8*7*--8*7*|
Ab :0-0-0-0-0-0-0-0-0-0-0-3---|*-3-----5*5-5-5*--|----------------|
Db :--------------------------|------------------|----------------|

Eb :------------------|------------------|----------------|
Bb :------------------|------------------|----------------|
Gb :------------------|------------------|----5-*---7-*---|
Db :--------8-7-5-3-5-|7-5-3-*-*-------8*|7*8*--8*7*--8*7*|
Ab :5*5-5-5*----------|------7-5*5-5-5*--|----------------|
Db :------------------|------------------|----------------|

Eb :------------------|---------------------|-----------------------------|
Bb :------------------|---------------------|-----------------------------|
Gb :------------------|---------------------|-----------------------------|
Db :--------8-7-5-3-5-|7-5-3-*-3-*----------|--------5-*------------------|
Ab :5*5-5-5*----------|------7-1-1-1-1-1-1-1|1-1-1-1-3-3-3-3-3-3-3-3-3-3-3|
Db :------------------|---------------------|-----------------------------|

Eb :--------------------------|----------------|----------------|
Bb :--------------------------|----------------|----------------|
Gb :--------------------------|----------------|----------------|
Db :2-*-------------------5---|*-5-----7---7--*|--5-3-----------|
Ab :0-0-0-0-0-0-0-0-0-0-0-3---|*-3-----5---5--*|--3-1-----------|
Db :--------------------------|----------------|----------------|

Eb :------------------|----------------|----------------|------------------|
Bb :------------------|----------------|----------------|------------------|
Gb :------------------|----------------|----------------|------------------|
Db :3*3-3-3*3*3*3-3---|--5-----7---7--*|--5-3-----------|3*3-3-3*3*3*3-3---|
Ab :1*1-1-1*1*1*1-1---|--3-----5---5--*|--3-1-----------|1*1-1-1*1*1*1-1---|
Db :------------------|----------------|----------------|------------------|

Eb :------------------|----------------|------------------|
Bb :------------------|----------------|------------------|
Gb :------------------|----5-*---7-*---|------------------|
Db :--5-----*-------8*|7*8*--8*7*--8*7*|--------8-7-5-3-5-|
Ab :--3-----5*5-5-5*--|----------------|5*5-5-5*----------|
Db :------------------|----------------|------------------|

Eb :------------------|----------------|------------------|
Bb :------------------|----------------|------------------|
Gb :------------------|----5-*---7-*---|------------------|
Db :7-5-3-*---------8*|7*8*--8*7*--8*7*|--------8-7-5-3-5-|
Ab :------7-5*5-5-5*--|----------------|5*5-5-5*----------|
Db :------------------|----------------|------------------|

Eb :---------------------|-----------------------------|
Bb :---------------------|-----------------------------|
Gb :---------------------|-----------------------------|
Db :7-5-3-*-3-*----------|--------5-*------------------|
Ab :------7-1-1-1-1-1-1-1|1-1-1-1-3-3-3-3-3-3-3-3-3-3-3|
Db :---------------------|-----------------------------|

Eb :--------------------------|------------------|----------------|
Bb :--------------------------|------------------|----------------|
Gb :--------------------------|------------------|----5-*---7-*---|
Db :2-*-------------------5---|*-5-----*-------8*|7*8*--8*7*--8*7*|
Ab :0-0-0-0-0-0-0-0-0-0-0-3---|*-3-----5*5-5-5*--|----------------|
Db :--------------------------|------------------|----------------|

Eb :------------------|------------------|----------------|
Bb :------------------|------------------|----------------|
Gb :------------------|------------------|----5-*---7-*---|
Db :--------8-7-5-3-5-|7-5-3-*-*-------8*|7*8*--8*7*--8*7*|
Ab :5*5-5-5*----------|------7-5*5-5-5*--|----------------|
Db :------------------|------------------|----------------|

Eb :------------------|---------------------|-----------------------------|
Bb :------------------|---------------------|-----------------------------|
Gb :------------------|---------------------|-----------------------------|
Db :--------8-7-5-3-5-|7-5-3-*-3-*----------|--------5-*------------------|
Ab :5*5-5-5*----------|------7-1-1-1-1-1-1-1|1-1-1-1-3-3-3-3-3-3-3-3-3-3-3|
Db :------------------|---------------------|-----------------------------|

Eb :--------------------------|----------------|----------------|
Bb :--------------------------|----------------|----------------|
Gb :--------------------------|----------------|----------------|
Db :2-*-------------------5---|*-5-----7---7--*|--5-3-----------|
Ab :0-0-0-0-0-0-0-0-0-0-0-3---|*-3-----5---5--*|--3-1-----------|
Db :--------------------------|----------------|----------------|

Eb :------------------|----------------|----------------|------------------|
Bb :------------------|----------------|----------------|------------------|
Gb :------------------|----------------|----------------|------------------|
Db :3*3-3-3*3*3*3-3---|--5-----7---7--*|--5-3-----------|3*3-3-3*3*3*3-3---|
Ab :1*1-1-1*1*1*1-1---|--3-----5---5--*|--3-1-----------|1*1-1-1*1*1*1-1---|
Db :------------------|----------------|----------------|------------------|

Eb :---------------------|----------------------|---------------------|
Bb :---------------------|----------------------|---------------------|
Gb :---------------------|----------------------|---------------------|
Db :--5-----3-*----------|4-*-----------5---6---|7---8---9-*----------|
Ab :--3-----1-1-1-1-1-1-1|2-2-2-2-2-2-2-3---4---|5---6---7-7-7-7-7-7-7|
Db :---------------------|----------------------|---------------------|

Eb :------------------------------|------------------------------|
Bb :------------------------------|------------------------------|
Gb :------------------------------|------------------------------|
Db :------------------------------|------------------------------|
Ab :9p-7-7-7-7-7-7-10p-7-7-7-7-7-7|12p-7-7-10p-7-7-9p-7-7-7-7-7-7|
Db :------------------------------|------------------------------|

Eb :------------------------|---------------------|
Bb :------------------------|---------------------|
Gb :------------------------|---------------------|
Db :----------------9--7*-7*|--------*------------|
Ab :10p-7-7-7-7-7-7-7--5*-5*|5--7*-7*7-7-7-7-7-7-7|
Db :------------------------|5--7*-7*-------------|

Eb :------------------------------|------------------------------|
Bb :------------------------------|------------------------------|
Gb :------------------------------|------------------------------|
Db :------------------------------|------------------------------|
Ab :9p-7-7-7-7-7-7-10p-7-7-7-7-7-7|12p-7-7-10p-7-7-9p-7-7-7-7-7-7|
Db :------------------------------|------------------------------|

Eb :------------------------|---------------------|
Bb :------------------------|---------------------|
Gb :------------------------|---------------------|
Db :----------------9--7*-7*|---------------------|
Ab :10p-7-7-7-7-7-7-7--5*-5*|5--7*-7*7-7-7-7-7-7-7|
Db :------------------------|5--7*-7*-------------|

Eb :------------------------------|------------------------------|
Bb :------------------------------|------------------------------|
Gb :------------------------------|------------------------------|
Db :------------------------------|------------------------------|
Ab :9p-7-7-7-7-7-7-10p-7-7-7-7-7-7|12p-7-7-10p-7-7-9p-7-7-7-7-7-7|
Db :------------------------------|------------------------------|

Eb :------------------------|---------------------|
Bb :------------------------|---------------------|
Gb :------------------------|---------------------|
Db :----------------9--7*-7*|--------*------------|
Ab :10p-7-7-7-7-7-7-7--5*-5*|5--7*-7*7-7-7-7-7-7-7|
Db :------------------------|5--7*-7*-------------|

Eb :------------------------------|------------------------------|
Bb :------------------------------|------------------------------|
Gb :------------------------------|------------------------------|
Db :------------------------------|------------------------------|
Ab :9p-7-7-7-7-7-7-10p-7-7-7-7-7-7|12p-7-7-10p-7-7-9p-7-7-7-7-7-7|
Db :------------------------------|------------------------------|

Eb :------------------------|-----------------|------------------|
Bb :------------------------|-----------------|------------------|
Gb :------------------------|-----------------|------------------|
Db :----------------9--7*-7*|-----------------|------------------|
Ab :10p-7-7-7-7-7-7-7--5*-5*|5--7*-7*7-5-7-/9-|--7-9-10---7-9-10-|
Db :------------------------|5--7*-7*---------|------------------|

Eb :---------------------|------------------|-----------------|
Bb :---------------------|------------------|-----------------|
Gb :---------------------|------------------|-----------------|
Db :---------------------|------------------|-----------------|
Ab :/12-10-9\-7\-5-----3-|----2*2*2-3-2-0-2-|0-*-----7-5-7-/9-|
Db :---------------------|------------------|--5-4---*--------|

Eb :------------------|------------------------|------------------------|
Bb :------------------|------------------------|------------------------|
Gb :------------------|------------------------|------------------------|
Db :------------------|7-9-7--*----------------|------------------------|
Ab :--7-9-10---7-9-10-|*-----10-10-10-10*9-9-9*|7-7-7*5-5-5*7-7-7*5-5-5*|
Db :------------------|---------10-10-10*9-9-9*|7-7-7*5-5-5*7-7-7*5-5-5*|

Eb :---------------------|------------------|---------------------|
Bb :---------------------|------------------|---------------------|
Gb :---------------------|------------------|---------------------|
Db :---------------------|------------------|---------------------|
Ab :4-4-4*0-0-0*7-5-7-/9-|--7-9-10---7-9-10-|/12-10-9\-7\-5-----3-|
Db :4-4-4*0-0-0*---------|------------------|---------------------|

Eb :------------------|-----------------|------------------|
Bb :------------------|-----------------|------------------|
Gb :------------------|-----------------|------------------|
Db :------------------|-----------------|------------------|
Ab :----2*2*2-3-2-0-2-|0-*-----7-5-7-/9-|--7-9-10---7-9-10-|
Db :------------------|--5-4---*--------|------------------|

Eb :------------------------|------------------------|
Bb :------------------------|------------------------|
Gb :------------------------|------------------------|
Db :7-9-7--*----------------|------------------------|
Ab :*-----10-10-10-10*9-9-9*|7-7-7*5-5-5*7-7-7*5-5-5*|
Db :---------10-10-10*9-9-9*|7-7-7*5-5-5*7-7-7*5-5-5*|

Eb :------------------------|------------------------|---------------------|
Bb :------------------------|------------------------|---------------------|
Gb :------------16-14-12-14-|12--*-12--*-------------|---------------------|
Db :------------------------|---16--*-16-14-16-14-12-|14-----14-14-14-14---|
Ab :4-4-4*0-0-0*------------|------------------------|---------------------|
Db :4-4-4*0-0-0*------------|------------------------|---------------------|

Eb :---------------------|------------------------|---------------------|
Bb :---------------------|------------------------|---------------------|
Gb :---------------------|------------------------|---------------------|
Db :--12-----16-14-12-14-|12--*-12--*-------------|---------------------|
Ab :---------------------|---15--*-15-14-15-14-12-|12-----12-12-12-12---|
Db :---------------------|------------------------|---------------------|

Eb :---------------------|------------------------|---------------------|
Bb :---------------------|------------------------|---------------------|
Gb :---------16-14-12-14-|12--*-12--*-------------|---------------------|
Db :---------------------|---16--*-16-14-16-14-12-|14-----14-14-14-14---|
Ab :--10------*----------|------------------------|---------------------|
Db :---------------------|------------------------|---------------------|

Eb :---------------------|------------------------|---------------------|
Bb :---------------------|------------------------|---------------------|
Gb :---------------------|------------------------|---------------------|
Db :--12-----16-14-12-14-|12--*-12--*-------------|---------------------|
Ab :---------------------|---15--*-15-14-15-14-12-|12-----12-12-12-12---|
Db :---------------------|------------------------|---------------------|

Eb :---------------------|------------------------|---------------------|
Bb :---------------------|------------------------|---------------------|
Gb :---------16-14-12-14-|12--*-12--*-------------|---------------------|
Db :---------------------|---16--*-16-14-16-14-12-|14-----14-14-14-14---|
Ab :--10------*----------|------------------------|---------------------|
Db :---------------------|------------------------|---------------------|

Eb :---------------------|------------------------|---------------------|
Bb :---------------------|------------------------|---------------------|
Gb :---------------------|------------------------|---------------------|
Db :--12-----16-14-12-14-|12--*-12--*-------------|---------------------|
Ab :---------------------|---15--*-15-14-15-14-12-|12-----12-12-12-12---|
Db :---------------------|------------------------|---------------------|

Eb :---------------------|------------------------|---------------------|
Bb :---------------------|------------------------|---------------------|
Gb :---------16-14-12-14-|12--*-12--*-------------|---------------------|
Db :---------------------|---16--*-16-14-16-14-12-|14-----14-14-14-14---|
Ab :--10------*----------|------------------------|---------------------|
Db :---------------------|------------------------|---------------------|

Eb :---------------------|------------------------|---------------------|
Bb :---------------------|------------------------|---------------------|
Gb :---------------------|------------------------|---------------------|
Db :--12-----16-14-12-14-|12--*-12--*-------------|---------------------|
Ab :---------------------|---15--*-15-14-15-14-12-|12-----12-12-12-12---|
Db :---------------------|------------------------|---------------------|

Eb :-----------------|----------------------|10-----10-12-14-15-14-|
Bb :-----------------|------10-----10-12-13-|-*--------------------|
Gb :---------9-----9-|11-12--*--------------|----------------------|
Db :-----------------|----------------------|----------------------|
Ab :--10-------------|----------------------|----------------------|
Db :-----------------|----------------------|----------------------|

Eb :12--*-----------------|------10------*-------|--------------------|
Bb :---15-13-12-10-----10-|12-13--*-----13-12-10-|8-----8-10-12-13-12-|
Gb :----------------------|----------------------|--------------------|
Db :----------------------|----------------------|--------------------|
Ab :----------------------|----------------------|--------------------|
Db :----------------------|----------------------|--------------------|

Eb :------------15-14-12-14-|12-10-12-10-8-10-8-7-|
Bb :10--*-------------------|---------------------|
Gb :---12-11--*-------------|---------------------|
Db :---------12--*----------|---------------------|
Ab :------------------------|---------------------|
Db :------------------------|---------------------|

Eb :7-h8-p7--*-7--*------------7|
Bb :--------10-*-10-8-7-h8-h10-*|
Gb :----------------------------|
Db :----------------------------|
Ab :----------------------------|
Db :----------------------------|

Eb :h8-h10-p8-p7--*----------7-h8-h12-t15-p12-p8-p7|
Bb :-------------10-7-h8-h10-*---------------------|
Gb :-----------------------------------------------|
Db :-----------------------------------------------|
Ab :-----------------------------------------------|
Db :-----------------------------------------------|

Eb :h8-h12-t15-p12-p8-p7--*------------------|----------------|
Bb :---------------------10-p8-h10-p8-p7-*---|----------------|
Gb :-------------------------------------9---|----------------|
Db :-----------------------------------------|----------------|
Ab :-----------------------------------------|----------------|
Db :-----------------------------------------|----------------|

Eb :22-20-19--*-------20-19-|17--*-------19-17-15--*-|
Bb :---------22-20-19--*----|---20-19-17--*-------19-|
Gb :-*----------------------|------------------------|
Db :------------------------|------------------------|
Ab :------------------------|------------------------|
Db :------------------------|------------------------|

Eb :------17-15-14--*-------|22-20-19--*-------20-19-|
Bb :17-15--*-------17-15-13-|-*-------22-20-19--*----|
Gb :------------------------|------------------------|
Db :------------------------|------------------------|
Ab :------------------------|------------------------|
Db :------------------------|------------------------|

Eb :17--*-------19-17-15--*-|------17-15-14--*-------|
Bb :---20-19-17--*-------19-|17-15--*-------17-15-13-|
Gb :------------------------|------------------------|
Db :------------------------|------------------------|
Ab :------------------------|------------------------|
Db :------------------------|------------------------|

Eb :--------------------------|---------------------------|
Bb :b15-(17)-----~--~(17)-----|----12-h13-p12--*-12--*----|
Gb :--------------------------|---------------14--*-14-12-|
Db :--------------------------|---------------------------|
Ab :--------------------------|---------------------------|
Db :--------------------------|---------------------------|

Eb :---------------------|------------------17-19-|20-/22---19---20---22-|
Bb :---------------------|---------17-19-20--*----|----------------------|
Gb :-*-------------------|16-17-19--*-------------|----------------------|
Db :14-~--------14-16-17-|-*----------------------|----------------------|
Ab :---------------------|------------------------|----------------------|
Db :---------------------|------------------------|----------------------|

Eb :--20---22---b22-(24)---|--------*-------|----------------|
Bb :-----------------------|----------------|----------------|
Gb :-----------------------|----------------|----------------|
Db :-----------------------|----------------|----------------|
Ab :-----------------------|--------2---0*0*|0*--2---0*0*0*--|
Db :-----------------------|--------2---0*0*|0*--2---0*0*0*--|

Eb :------------------*---|----------------|----------------|
Bb :----------------------|----------------|----------------|
Gb :----------------------|----------------|----------------|
Db :----------------------|----------------|----------------|
Ab :5-5-5*4-4-4*0-0-0*2---|0*0*0*--2---0*0*|0*--2---0*0*0*--|
Db :5-5-5*4-4-4*0-0-0*2---|0*0*0*--2---0*0*|0*--2---0*0*0*--|

Eb :------------------*---|----------------|----------------|
Bb :----------------------|----------------|----------------|
Gb :----------------------|----------------|----------------|
Db :----------------------|----------------|----------------|
Ab :5-5-5*4-4-4*0-0-0*2---|0*0*0*--2---0*0*|0*--2---0*0*0*--|
Db :5-5-5*4-4-4*0-0-0*2---|0*0*0*--2---0*0*|0*--2---0*0*0*--|

Eb :------------------*---|----------------|----------------|
Bb :----------------------|----------------|----------------|
Gb :----------------------|----------------|----------------|
Db :----------------------|----------------|----------------|
Ab :5-5-5*4-4-4*0-0-0*2---|0*0*0*--2---0*0*|0*--2---0*0*0*--|
Db :5-5-5*4-4-4*0-0-0*2---|0*0*0*--2---0*0*|0*--2---0*0*0*--|

Eb :------------------*---|----------------|----------------|
Bb :----------------------|----------------|----------------|
Gb :----------------------|----------------|----4-----4-----|
Db :----------------------|----------------|----2-----2-----|
Ab :5-5-5*4-4-4*0-0-0*2---|*-------2---*---|----2-----2-----|
Db :5-5-5*4-4-4*0-0-0*2---|*-------2---*---|----2-----2-----|

Eb :----------------|----------------|----------------|
Bb :----------------|----------------|----------------|
Gb :4-----4---------|----------------|*---------------|
Db :2-----2---------|----------------|*---------------|
Ab :2-----2---------|----------------|*---------------|
Db :2-----2---------|----------------|*---------------|


************************** INTRO SOLO BELOW THIS LINE ******************
Eb :----------------|----------------|----------------|-----------------|
Bb :----------------|----------------|----------------|-----------------|
Gb :----------------|7---------------|--------7-------|----9-------10---|
Db :----------------|----------------|----------------|-----------------|
Ab :----------------|----------------|----------------|-----------------|
Db :----------------|----------------|----------------|-----------------|

Eb :-------------------|----------------|-----------------|----------------|
Bb :-------------------|----------------|-----------------|----------------|
Gb :12-------10-9-10---|--------7---9---|10---9---7---5---|5-------5-7-9---|
Db :-------------------|----------------|-----------------|----------------|
Ab :-------------------|----------------|-----------------|----------------|
Db :-------------------|----------------|-----------------|----------------|

Eb :----------------|----------------|-----------------|
Bb :----------------|----------------|-----------------|
Gb :7---5---5-------|----3-----------|*---7-9-10-----*-|
Db :----------------|----------------|-----------------|
Ab :----------------|----------------|-----------------|
Db :----------------|----------------|-----------------|

Eb :---------------17-15-|13----*---13----*---|-----------------|
Bb :10-12-13-----*-------|-----17----*--------|-----------------|
Gb :---------------------|---------------12---|14---------------|
Db :---------------------|--------------------|-----------------|
Ab :---------------------|--------------------|-----------------|
Db :---------------------|--------------------|-----------------|

Eb :----------------|-----------------|-------------------|----------------|
Bb :--------*-------|-----------------|-------------------|----------------|
Gb :--------7-------|----9-------10---|12-------10-9-10---|--------7---9---|
Db :----------------|-----------------|-------------------|----------------|
Ab :----------------|-----------------|-------------------|----------------|
Db :----------------|-----------------|-------------------|----------------|

Eb :-----------------|----------------|----------------|----------------|
Bb :-----------------|----------------|----------------|----------------|
Gb :10---9---7---5---|5-------5-7-9---|7---5---5-------|----3-----------|
Db :-----------------|----------------|----------------|----------------|
Ab :-----------------|----------------|----------------|----------------|
Db :-----------------|----------------|----------------|----------------|

Eb :-----------------|---------------17-15-|13----*-------------|
Bb :-----------------|10-12-13-----*-------|-----15---13---10---|
Gb :*---7-9-10-----*-|---------------------|--------------------|
Db :-----------------|---------------------|--------------------|
Ab :-----------------|---------------------|--------------------|
Db :-----------------|---------------------|--------------------|

Eb :-----------------|----------------|-----------------|
Bb :15---------------|--------*-------|-----------------|
Gb :-----------------|--------7-------|----9-------10---|
Db :-----------------|----------------|-----------------|
Ab :-----------------|----------------|-----------------|
Db :-----------------|----------------|-----------------|

Eb :-------------------|----------------|-----------------|----------------|
Bb :-------------------|----------------|-----------------|----------------|
Gb :12-------10-9-10---|--------7---9---|10---9---7---5---|5-------5-7-9---|
Db :-------------------|----------------|-----------------|----------------|
Ab :-------------------|----------------|-----------------|----------------|
Db :-------------------|----------------|-----------------|----------------|

Eb :----------------|----------------|-------------------|----------------|
Bb :----------------|----------------|-------------------|----------------|
Gb :7---5---5-------|----3-----------|2-~-----~-------~--|--------*-------|
Db :----------------|----------------|-------------------|----------------|
Ab :----------------|----------------|-------------------|----------------|
Db :----------------|----------------|-------------------|----------------|
Добавлено: 14.04.2012
Вам также может быть интересно:
Другие материалы по этой песне:
  • Аккорды и текст

Страница создана 14.04.2012
http://primanota.ru/woe-of-tyrants/kingdom-of-might-dawn-in-the-darkness-chords.htm
Привет, Гость.
Предлагаем пройти революционный курс по гитаре.
Подарок от PrimaNota.Ru, забирай!