PrimaNota.ru - самый крупный в мире бесплатный архив песенных текстов, аккордов, табулатур и нот


Woe Is Me - Nothing Left To Lose - текст песни, таба, видео

Регистрация Запомнить меня
Войти через:  Facebook Google Twitter Vk Yandex Mail.ru

Woe Is Me - Nothing Left To Lose - текст песни, таба, видео

Печатать
Просмотров: 274
----------    Woe, is me - Nothing Left To Lose     ----------

Tabbed by: Perry Davies (sickpez)

Video I went off to tab the song: https://www.youtube.com/watch?v=dYnnTxXAE-M

E-mail: pezzad@msn.com

Tuning: Drop A# ( A# F A# D# G C )

INTRO (0:14) PLAY TWICE (Guitar 1 and 2)
C |-----------------------------------------------------------------|
G |-----------------------------------------------------------------|
D |-14-14-14-14-14-12-11-11-11-11-11-11-11-11-9-7-7-7-7-7-7-7-7-7-7-|
A#|--x--x--x--x--x--x--x--x--x--x--x--x--x--x-x-x-x-x-x-x-x-x-x-x-x-|
F |-12-12-12-12-12-10--9--9--9--9--9--9--9--9-7-5-5-5-5-5-5-5-5-5-5-|
A#|-----------------------------------------------------------------|

C |-----------------------------|---------------------|
G |-----------------------------|---------------------|
D |-6-6-6-6-7-7-7-7-7-7-7-7-7-7-|-11-11-11-11-9-9-9-9-|
A#|-x-x-x-x-x-x-x-x-x-x-x-x-x-x-|--x--x--x--x-x-x-x-x-|
F |-4-4-4-4-5-5-5-5-5-5-5-5-5-5-|--9--9--9--9-7-7-7-7-|
A#|-----------------------------|---------------------|
         ^^^1st ending^^^          ^^^2nd ending^^^

(0:37) (DORIANO... 'best of themmmmm...) (Guitar 1 and 2)
C |----------------------------------------------------------------------|
G |----------------------------------------------------------------------|
D#|----------------------------------------------------------------------|
A#|-0~1~-----------------------------1/4---------------------------------|
F |-0~1~-000-000-000-000-000-000-000-1/4-000-000-000-000-000-000-004-001-|
A#|-0~1~-000-000-000-000-000-000-000-1/4-000-000-000-000-000-000-004-001-|
         **  **  **  **  **  **  **      **  **  **  **  **  **  **  **

(0:51 (DORIANO... 'so let me promise you this...) (Guitar 1 and 2)
C |---------------------------------------------------------------------|
G |---------------------------------------------------------------------|
D#|---------------------------------------------------------------------|
A#|-----------------------------1/4-------------------------------------|
F |-000-000-000-000-000-000-000-1/4-000-000-000-000-000-000-3\2-5\4-4\3-|
A#|-000-000-000-000-000-000-000-1/4-000-000-000-000-000-000-3\2-5\4-4\3-|
    **  **  **  **  **  **  **      **  **  **  **  **  **

(1:02) (DORIANO... 'I'll be the thought...) (Guitar 1 and 2)
C |-------------|------------------------------------------|
G |-------------|--(Comes in at 1:18)----------------------|
D#|-------------|------------------------------------------|
A#|-0~-1~-0~-0~-|-0~---------------------------------------|
F |-0~-1~-0~-0~-|-0~---------------------------------------|
A#|-0~-1~-0~-0~-|-0~-0000-13b-0-13b-000-13b-0-13b-00000000-|
                     (     ^left guitar plays this^      )

(1:25) (DORIANO... 'Blerghhhh...) (Guitar 1 and 2)
C |--------------------------------------------------|
G |--------------------------------------------------|
D#|----------Each bend is differnt listen closely----|
A#|--------------------------------------------------|
F |--------------------------------------------1-----|
A#|-0000-13b-0-13b-000-13b-0-13b-0000-13b-0000---2-0-|

(1:30) (Guitar 1 and 2)
C |----------------------------------------------|
G |------------------Sounds like a faint bend-|--|
D#|-------------------------------------------|--|
A#|-------------------------------------------|--|
F |---------------xxx-------------------------V--|
A#|0000-13b-0-13b-xxx-13b-0-13b-00000-13b-000-1b-|


(1:36) (DORIANO... 'I thought I told you once...) (Guitar 1 and 2)
C |--------------------------------------------------|
G |--------------------------------------------------|
D#|----------Each bend is differnt listen closely----|
A#|--------------------------------------------------|
F |--------------------------------------------1-----|
A#|-0000-13b-0-13b-000-13b-0-13b-0000-13b-0000---2-0-|

(1:36) (DORIANO... 'I thought I told you once...) (Guitar 1 and 2)
C |--------------------------------------------------|
G |--------------------------------------------------|
D#|--------------------------------------------------|
A#|--------------------------------------------------|
F |--------------------------------------------1-----|
A#|-0000-13b-0-13b-000-13b-0-13b-00000-13b-000---2-0-|

(1:47) (DORIANO... 'Now that was clever...)
C |---------------------------------------------------------------------|
G |-----------(  right guitar play this  )(  left guitar play this  )---|
D#|---------------------------------------------------------------------|
A#|-0~----------------------------------1~--------------------------1~--|
F |-0~---------0-0-0-0-0-0-0-0-0-0-0-0--1~-0-0-0-0-0-0-0-0-0-0-0-0--1~--|
A#|-0~---------1-1-1-1-1-1-1-1-1-1-1-1--1~-1-1-1-1-1-1-1-1-1-1-1-1--1~--|
               * * * * * * * * * * * *     * * * * * * * * * * * *

(2:04) (Breakdown when Doriano screams) (Guitar 1 and 2)
C |--------------------------------------|
G |--------------------------------------|
D#|--------------------------------------|
A#|------------------------------1/4\1-0~|
F |-00--0000-00------00-0000-00--1/4\1-0~|
A#|-11--1111-11--1b--11-1111-11--1/4\1-0~|
    **  **** **      ** **** **

(2:21) (Hance... 'They painted us with guilt...) (Guitar 1 and 2)
C |-------------------------------------------------------|
G |-------------------------------------------------------|
D#|-------------------------------------------------------|
A#|--------4-------5~55~5--7~7~7--------------------------|
F |--------4-(x16)-5~55~5--7~7~7--------------------------|
A#|-9(x16)-4-------5~55~5--7~7~7--12-12-12-12-10-10-10-10-|
                      *       *

(2:33) (Hance... 'So take a second glance...) (Guitar 1 and 2)
C |-----------------------------------------------------------------|
G |-----------------------------------------------------------------|
D#|-----------------------11-11-11-11-11-11-11-11-------14-14-12-11-|
A#|9------4-------5~--7~---x--x--x--x--x--x--x--x--0~----x--x--x--x-|
F |9(x16)-4-(x16)-5~--7~---9--9--9--9--9--9--9--9--0~---12-12-10--9-|
A#|9------4-------5~--7~---------------------------0~---------------|

(2:46) (Hance... 'Woah ohhh ohhh') (Guitar 1 and 2)
C |-----------------------------------------------------------|
G |-----------------------------------------------------------|
D#|-----------------------------------------------------------|
A#|-7------9------5------0------7------9------5------xxxx--0~-|
F |-7(x16)-9(x16)-5(x16)-0(x16)-7(x16)-9(x16)-5(x16)-xxxx--0~-|
A#|-7------9------5------0------7------9------5------xxxx--0~-|

------------------------------------

| /   Slide up
| \   Slide down
| ~   Let ring
| x   Mute note
| b   Bend

------------------------------------
Добавлено: 06.09.2013
Вам также может быть интересно:
Другие материалы по этой песне:
  • Аккорды и текст

Страница создана 06.09.2013
http://primanota.ru/woe-is-me/nothing-left-to-lose-chords.htm
Привет, Гость.
Предлагаем пройти революционный курс по гитаре.
Подарок от PrimaNota.Ru, забирай!