PrimaNota.ru - самый крупный в мире бесплатный архив песенных текстов, аккордов, табулатур и нот


Woe Is Me - Fine Without You - таба, видео

Регистрация Запомнить меня
Войти через:  Facebook Google Twitter Vk Yandex Mail.ru

Woe Is Me - Fine Without You - таба, видео

Печатать
Просмотров: 504
Уроки эстрадного вокала в Санкт-Петербурге
-------------------------------------------------------------------------------
                             Fine Without You - Woe, Is Me
-------------------------------------------------------------------------------
Tabbed by: Steven McAllister
E-mail: smcallister92@gmail.com

Tuning: Drop D

e|---------------------------------------------------------------------------|
B|---------------------------------------------------------------------------|
G|---12-x18----\9-x3-----\7-x3-----\5-x18----/9-x3-----\7-x3-----------------|
D|---10--------\7--------\5--------\3--------/7--------\7--------------------|
A|---10--------\7--------\5--------\3--------/7--------\7--------------------|
E|---10--------\7--------\5--------\3--------/7--------\5--------------------|


************************************

| /   slide up
| \   slide down
| h   hammer-on
| p   pull-off
| ~   vibrato
| +   harmonic
| x   Mute note
| b   Bend
| pb  Pre-bend
| br  Bend release
| pbr Pre-bend release
| brb Bend release bend

************************************
Добавлено: 15.11.2013
Другие материалы по этой песне:
  • Аккорды и текст

Страница создана 15.11.2013
http://primanota.ru/woe-is-me/fine-without-you-chords.htm
Привет, Гость.
Предлагаем пройти революционный курс по гитаре.
Подарок от PrimaNota.Ru, забирай!