PrimaNota.ru - самый крупный в мире бесплатный архив песенных текстов, аккордов, табулатур и нот


Woe Is Me - Delinquent - бас-таба, видео

Регистрация Запомнить меня
Войти через:  Facebook Google Twitter Vk Yandex Mail.ru

Woe Is Me - Delinquent - бас-таба, видео

Печатать
Просмотров: 102
Уроки эстрадного вокала в Санкт-Петербурге
(0:00 – 0:10)
“Visitor Come To My...”

|-------------------------------------|
|-------------------------------------|
|-------------------------------------|
|-0~------------------00-00-0000-00-0-|

(0:10 – 0:14)
“I'm On The Verge...”

|--------------------------------------------------------------------|
|--------------------------------------------------------------------|
|--------------------------------------------------------------------|
|-00-00-00-0000-00-00-0------00-00-00-0000-00-00-0------0-0-0000-00--|

(0:14 – 0:21)
“A Vagabond...”

|------------------------------------------------------------|
|------------------------------------------------------------|
|------------------------------------------------------------|
|-0-0-0000-00---0-0000-00--0-0-0000-00-0-----0-0000-0-0000-0-|

(0:21 – 0:34)
“You're Mind...”

|------------------------------------------------|
|------------------------------------------------|
|------------------------------------------------|
|-0~--------07~---------70~---------05~----------|







(0:40 – 0:53)
“Rain On Your Parade...”

|--------------------------------------------------------------|
|--------------------------------------------------------------|
|--------------------------------------------------------------|
|-7777777777777777-33333333333333-5555555555555555555555555555-|



(0:54 – 1:07)
“Who Am I To Pretend...”

|--------------------------------------------|
|--------------------------------------------|
|--------------------------------------------|
|-33333333333333-77777777777777-5~-----------|


(1:07 – 1:20)
“Floor...”

|---(Fades In)-------------------------------------------------------------|
|--------------------------------------------------------------------------|
|--------------------------------------------------------------------------|
|-1-0-0-0---0-1-0-1---0-0-0--00--0-0-0-0---1-0-0-0---0-1-0-1-0---3-1-0-----|


(1:20 – 1:27)
“At My Knees, Praying...”
|----------------------------------------------------------------|
|----------------------------------------------------------------|
|----------------------------------------------------------------|
|-------------------------------------------------------------7*-|
|----------------------------------------------------------------|
|-1-0-0-0---0-1-0-1---0-0-0--00--0-0-0-0---1-0-0-0---0-1-0-1-0---|


(1:27 – 1:40)
“I've Exposed...”

|------------------------------------------------------------------------|
|------------------------------------------------------------------------|
|------------------------------------------------------------------------|
|-1~-11~----1~-111~--1~--1~--------00-00---0000-0000---00-00---0000-0000-|


(1:40 – 1:56)
“Most Vulnerable State...”

|----------------------------------------------------------------------|
|----------------------------------------------------------------------|
|----------------------------------------------------------------------|
|-8~----8--5b---0000-----0--00-0~---00--0000-0-0000--0—00-0~---00-0000-|

(1:56 – 2:12)
“I Find No Humour...”

|----------------------------------------------------------------|
|----------------------------------------------------------------|
|----------------------------------------------------------------|
|-0000--0--00-0~---0-0000---000--0-00-0~---00-0000---8~----8--5b-|

(2:12 – 2:26)
“I Was The King...”

|---------------------------------------------------------------------------|
|---------------------------------------------------------------------------|
|---------------------------------------------------------------------------|
|-00--0-0000---0-0-0000---0-0-0000------00--0-00-0000--0000-0000—00-000-----|
  ..  . ....   . . ....   . . ....      ..  . .. ....  .... .... .. ....

(2:26 – 2:53)
“Behind Every Mask...”

|-------------------------------------------------------------------| (x2)
|-------------------------------------------------------------------|
|-------------------------------------------------------------------|
|-77777777777777-55555555555555-3333333333333333333333333333--------|


(2:53 – 2:27)
“Own Sins...”

|--------------|   END
|--------------|
|--------------|
|-7~-----------|
Добавлено: 26.06.2013
Другие материалы по этой песне:
  • Аккорды и текст

Страница создана 26.06.2013
http://primanota.ru/woe-is-me/delinquent-chords.htm
Привет, Гость.
Предлагаем пройти революционный курс по гитаре.
Подарок от PrimaNota.Ru, забирай!