PrimaNota.ru - самый крупный в мире бесплатный архив песенных текстов, аккордов, табулатур и нот


Wk Andrew - She Is Beautiful - таба, бас-таба, видео

Регистрация Запомнить меня
Войти через:  Facebook Google Twitter Vk Yandex Mail.ru

Wk Andrew - She Is Beautiful - таба, бас-таба, видео

Печатать
Просмотров: 190
Уроки эстрадного вокала в Санкт-Петербурге
Авторы: Andrew W.K.

Song: She is Beautiful
Artist: Andrew W.K.
Album: I Get Wet
tabbed by Eric Guerra

Tablature Explanation:
h=hammer-on
p=pull-off
/=slide up
\=slide down
PM . =palm mute

Standard Tuning

I got the intro perfect!

Intro
---------------------------------------------------------------
---------------------------------------------------------------
-7p6-77p6-77p6-7-6h7--7p6-77p6-77p6-7-6h7--7p6-77p5-77p6-7-6h7-
----0----0----0----------0----0----0----------0----0----0------
---------------------------------------------------------------
---------------------------------------------------------------

------------------------
------------------------
-7p6-77p5-77p6-9p7-11p7-
----0----0--------------
------------------------
------------------------

-----------------10-10-101010-10-10-101010-
------------------x--x--x-x-x--x--x--x-x-x-
-7-7-777-7-7-777--7--7--7-7-7--7--7--7-7-7-
-------------------------------------------
-------------------------------------------
-------------------------------------------

Verse 1
-----------------------------------------------------------------------
-----------------------------------------------------------------------
--------------7----------7\6/77-7/9\7---------------7----------7\6/77--
-055550--077777--055550--7\6/77-7/9\7--055550--077777--055550--7\6/77--
-055550--077775--055550--5\4/55-5/7\5--055550--077775--055550--5\4/55--
-033330--05555---033330----------------033330--05555---033330----------

Verse 2
-------------------------------------------------------------------------
-------------------------------------------------------------------------
------------------7-7------7\6/77-7/9\7------------------7-7------7\6/77-
-055550-0000-077777-755550-7\6/77-7/9\7-055550-0000-077777-755550-7\6/77-
-055550-0000-077775-555550-5\4/55-5/7\5-055550-0000-077775-555550-5\4/55-
-033330------05555---33330--------------033330------05555---33330--------
PM      ....                                   ....   

Riff
------------------------
------------------------
------------------------
-0000000000000000000000-
-0000000000000000000000-
------------------------
PM.....................

Verse 3
-------------------------------------------------
-------------------------------------------------
-6/7--6/7--6/7--6/7-------------7/11-11-11-11\77-
-6/7--6/7--6/7--6/7--7\555555/7-7/11-11-11-11\77-
-4/5--4/5--4/5--4/5--7\555555/7-5/9--9--9--9-\55-
---------------------5\333333/5------------------

Verse 4
-------------------------------
-------------------------------
---------7---777777------------
-5555-7777-7-777777-7777077770-
-5555-7775-7-555555-7777077770-
-3333-555--5--------5555055550-

Chorus
------------------------
------------------------
--------------------6-7-
-55-44-2-4-2-0--7-5-6-7-
-55-44-2-4-2-0--7-5-4-5-
-33-22-0-2-0----5-3-----

Verse 5
-------------------------------------------------------------
-------------------------------------------------------------
---------------------------------------------7-7-777-7-7-777-
-44444444444444-5555555555555-77777777777777-7-7-777-7-7-777-
-44444444444444-5555555555555-77777777777777-5-5-555-5-5-555-
-22222222222222-3333333333333-55555555555555-----------------

Bridge
-----------------------------------------------------------------------
-----------------------------------------------------------------------
--------------7----------------------------------------7-7------7\6/77-
-055550--077777--055550---------------055550-0000-077777-755550-7\6/77-
-055550--077775--055550--5\4/55-5/7\5-055550-0000-077775-555550-5\4/55-
-033330--05555---033330---------------033330------05555---33330--------

Song Structure:
Intro
Verse 1
Verse 2
Riff
Verse 3 (x2)
Verse 4 (x2)
Chorus (x2)
Riff
Verse 3 (x4)
Verse 4 (x4)
Chorus (x2)
Verse 5 (x2)
Bridge
Chorus (x2)
Verse 5 (x2)
     
Добавлено: 02.06.2013
Другие материалы по этой песне:
  • Аккорды и текст

Страница создана 02.06.2013
http://primanota.ru/wk-andrew/she-is-beautiful-chords.htm
Привет, Гость.
Предлагаем пройти революционный курс по гитаре.
Подарок от PrimaNota.Ru, забирай!