PrimaNota.ru - самый крупный в мире бесплатный архив песенных текстов, аккордов, табулатур и нот


Wizo - Schlechte Laune - аккорды и текст, таба, видео

Регистрация Запомнить меня
Войти через:  Facebook Google Twitter Vk Yandex Mail.ru

Wizo - Schlechte Laune - аккорды и текст, таба, видео

Печатать
Просмотров: 169
Уроки эстрадного вокала в Санкт-Петербурге
Schlechte Laune
Wizo
		   WIZO - Schlechte Laune

von der 94er Uuaarrgghh! - Scheibe


Intro:


Ich hab so richtig schlechte Laune...


Git 1: (so in etwa, Axel benutzt vierbei viele Ghostnotes, die sich am besten jeder selbst raushört)

  C               A          F               G                2x
e|---------10------------------|---------------------------------|
h|-------13--13-------10-12-10-|-10-10-12/14\12-10-----12-14-12--|
G|-----12-------12---9---------|--------------------12----------*|
D|--10-------------------------|--------------------------------*|
A|-----------------------------|---------------------------------|
E|-----------------------------|---------------------------------|


Git 2:
   C              A          F              G
e|------------------------|-----------------------|
h|------------------------|-----------------------|
G|------------------------|----------------------*|
D|--222-2-2-2-0-0---------|--333-3-3-3-2-2--0-0--*|
A|----------------3-3-----|-----------------------|
E|------------------------|-----------------------|




C            A                 F
Ich hab heut richtig Schlechte Laune
    G              C
Ich bin total mies drauf
     A                   F
Heut kotzt mich wirklich alles an
    G                    C
und gar nichts baut mich auf

  A   F             G         C
Uhuhuhu - Schlechte Laune
  A   F             G         C
Uhuhuhu - Schlechte Laune
  A   F             G#
Uhuhuhu - Schlechte Laune

C           A
Ich hab die Schnauze voll.
    F        G          C      F      C
Das ist heut nicht mein Tag.           (Gift und Galle)

F                          C
Heut ging so richtig alles schief (Rotz und Schlangengift, Gift und Galle) (=>?)
F                          C
und es gab nix was einfach lief (Rotz und Schlangengift, Gift und Galle) (=>?)
F         G              C              A
Alles was Scheiße laufen konnte ging daneben  (Patex?)
F         G(7)                            C
Wozu soll ich überhaupt noch weiterleben.

  A   F           G          C
Uhuhuhu - Schlechte Laune
  A   F           G          D
Uhuhuhu - Schlechte Laune
  H   G           A          D
Uhuhuhu - Schlechte Laune
  H   G           A          D
Uhuhuhu - Schlechte Laune
  H   G           A#
Uhuhuhu - Schlechte Laune

D           H
Ich hab die Schnauze voll
    G        A
Das ist heut nicht mein

D            H               G             A
Tag (Tag) -  Monat (Monat) - Jahr (Jahr) - Leben (Leben)
D            H               G             A
Tag (Tag) -  Monat (Monat) - Jahr (Jahr) - Leben


  H   G          A           D
Uhuhuhu - Schlechte Laune
  H   G          A           D
Uhuhuhu - Schlechte Laune
  H   G          A#          D
Uhuhuhu - Schlechte Laune



So, das isses ungefähr. Viel Spass damit und.............fragt niemals........WIZO?     
Добавлено: 17.07.2013
Другие материалы по этой песне:
  • Аккорды и текст

Страница создана 21.07.2012
http://primanota.ru/wizo/schlechte-laune-chords.htm
Привет, Гость.
Предлагаем пройти революционный курс по гитаре.
Подарок от PrimaNota.Ru, забирай!