PrimaNota.ru - самый крупный в мире бесплатный архив песенных текстов, аккордов, табулатур и нот


Wizard - The Visitor - таба, видео

Регистрация Запомнить меня
Войти через:  Facebook Google Twitter Vk Yandex Mail.ru

Wizard - The Visitor - таба, видео

Печатать
Просмотров: 69
Hey guys, I've never seen a tab for this song and I figured out most of it by ear (I hope)

I don't have a tab for the solo because I'm not that good, but I have all of the Rhythm 
guitar mapped out :)


Verse (No guitar during the first section, you'll hear it come in)



(The Thunder rolls wherever I travel on my way)

e|---------------------------------|
B|---------------------------------|
G|---------------------------------|
D|-8---------------8---------------|
A|-8--8-8-888-8-88-8--8-8-888-8-88-|
E|-6--6-6-666-6-66-6--6-6-666-6-66-|

      x x xxx x xx    x x xxx x xx


e|---------------------------------|
B|---------------------------------|
G|---------------------------------|
D|-6---------------3---------------|
A|-6--6-6-666-6-66-3--3-3-333-3-33-|
E|-4--4-4-444-4-44-1--1-1-111-1-11-|

      x x xxx x xx    x x xxx x xx


e|---------------------------------|
B|---------------------------------|
G|---------------------------------|
D|-8---------------8---------------|
A|-8--8-8-888-8-88-8--8-8-888-8-88-|
E|-6--6-6-666-6-66-6--6-6-666-6-66-|

      x x xxx x xx    x x xxx x xx

e|---------------------------------|
B|---------------------------------|
G|---------------------------------|
D|-6---------------6---------------|
A|-6--6-6-666-6-66-6--6-6-666-6-66-|
E|-4--4-4-444-4-44-4--4-4-444-4-44-|

      x x xxx x xx    x x xxx x xx

Pre-Chorus


(You are a lord that I can see)

e|-----------------------------------------------------|
B|-----------------------------------------------------|
G|-6---------------6-----------------------------------|
D|-6---8---6---3---6---8---6-------------------------6-|
A|-4---8---6---3---4---8---6-6-6-6-6-6-6-6-6-6-6-6-6-6-|
E|-----6---4---1-------6---4-4-4-4-4-4-4-4-4-4-4-4-4-4-|

                             x x x x x x x x x x x x


e|-----------------|
B|-----------------|
G|-----------------|
D|-8-------------8-|
A|-8-8-8-8-8-8-8-8-|
E|-6-6-6-6-6-6-6-6-|


Chorus

(I AM THOR)
e|-----------------------------------------|
B|-----------------------------------------|
G|-----------------------------------------|
D|-3--6--8---8---6---6---4---4---6---3---8-|  x 2
A|-3--6--8---8---6---6---4---4---6---3---8-|
E|-1--4--6---6---4---4---2---2---4---1---6-|


Post-Chorus  (This section has two separate guitar parts)


Rhythm

e|-----------------------|
B|-----------------------|
G|-----------------------|
D|3-6-8---6---8---6--6-6-|
A|3-6-8---6---8---6--6-6-|
E|1-4-6---4---6---4--4-4-|

Lead

e|--------------------------------------------------|
B|--------------------------------------------------|
G|-6-8-10-6-8-10-8-10-11-8---6-8-10-6-8-10-10--11-8-|
D|--------------------------------------------------|
A|--------------------------------------------------|
E|--------------------------------------------------|


Verse (Same as before, I'll paste it here anyway)


e|---------------------------------|
B|---------------------------------|
G|---------------------------------|
D|-8---------------8---------------|
A|-8--8-8-888-8-88-8--8-8-888-8-88-|
E|-6--6-6-666-6-66-6--6-6-666-6-66-|

      x x xxx x xx    x x xxx x xx


e|---------------------------------|
B|---------------------------------|
G|---------------------------------|
D|-6---------------3---------------|
A|-6--6-6-666-6-66-3--3-3-333-3-33-|
E|-4--4-4-444-4-44-1--1-1-111-1-11-|

      x x xxx x xx    x x xxx x xx


e|---------------------------------|
B|---------------------------------|
G|---------------------------------|
D|-8---------------8---------------|
A|-8--8-8-888-8-88-8--8-8-888-8-88-|
E|-6--6-6-666-6-66-6--6-6-666-6-66-|

      x x xxx x xx    x x xxx x xx

e|---------------------------------|
B|---------------------------------|
G|---------------------------------|
D|-6---------------6---------------|
A|-6--6-6-666-6-66-6--6-6-666-6-66-|
E|-4--4-4-444-4-44-4--4-4-444-4-44-|

      x x xxx x xx    x x xxx x xx


Pre-Chorus (Again, same as last time)





e|-----------------------------------------------------|
B|-----------------------------------------------------|
G|-6---------------6-----------------------------------|
D|-6---8---6---3---6---8---6-------------------------6-|
A|-4---8---6---3---4---8---6-6-6-6-6-6-6-6-6-6-6-6-6-6-|
E|-----6---4---1-------6---4-4-4-4-4-4-4-4-4-4-4-4-4-4-|

                             x x x x x x x x x x x x


e|-----------------|
B|-----------------|
G|-----------------|
D|-8-------------8-|
A|-8-8-8-8-8-8-8-8-|
E|-6-6-6-6-6-6-6-6-|

     x x x x x x


Chorus (Same)


e|-----------------------------------------|
B|-----------------------------------------|
G|-----------------------------------------|
D|-3--6--8---8---6---6---4---4---6---3---8-|  x 2
A|-3--6--8---8---6---6---4---4---6---3---8-|
E|-1--4--6---6---4---4---2---2---4---1---6-|


Post-Chorus (Again, two guitar parts but they change at the end now)

Rhythm

e|-----------------------------|
B|-----------------------------|
G|-----------------------------|
D|3-6-8---6---4---8--6-6--4--3-|
A|3-6-8---6---4---8--6-6--4--3-|
E|1-4-6---4---2---6--4-4--2--1-|

Lead

e|------------------------------------------------------|
B|------------------------------------------------------|
G|-6-8-10-6-8-10-8-10-11-8---6-8-10-6-8-10-10-8-8-6-5-5-|
D|------------------------------------------------------|
A|------------------------------------------------------|
E|------------------------------------------------------|


Solo (I do not know the lead section of the solo, but I know the Rhythm section)

Rhythm

e|-----------------------------------------------------------------|
B|-----------------------------------------------------------------|
G|-----------------------------------------------------------------|
D|-----------------------------------------------------------------|
A|-----------------------------------------------------------------|
E|-6-6-6-6-6-6-6-6-6-6-6-6-6-6-6-6-4-4-4-4-4-4-4-4-4-4-4-4-4-4-4-4-|

   x x x x x x x x x x x x x x x x x x x x x x x x x x x x x x x x


e|------------------------------------------------|
B|------------------------------------------------|
G|------------------------------------------------|
D|---------------------------------8--6-6--4--3-3-|
A|---------------------------------8--6-6--4--3-3-|   x 2 (Whole thing)
E|-2-2-2-2-2-2-2-2-2-2-2-2-2-2-2-2-6--4-4--2--1-1-|

   x x x x x x x x x x x x x x x x


e|--------------------------------------|
B|--------------------------------------|
G|------------10--9--------------10--11-|
D|-8--10--11--10--9---8--10--11--10--11-|
A|-8--10--11--8---7---8--10--11--8---9--|
E|-6--8---9-----------6--8---9----------|

Chorus


e|-----------------------------------------|
B|-----------------------------------------|
G|-----------------------------------------|
D|-3--6--8---8---6---6---4---4---6---3---8-|  x 2
A|-3--6--8---8---6---6---4---4---6---3---8-|
E|-1--4--6---6---4---4---2---2---4---1---6-|

e|------|
B|------|
G|------|
D|-3--6-|
A|-3--6-|
E|-1--4-|
Добавлено: 13.11.2013
Другие материалы по этой песне:
  • Аккорды и текст

Страница создана 13.11.2013
http://primanota.ru/wizard/the-visitor-chords.htm
Привет, Гость.
Предлагаем пройти революционный курс по гитаре.
Подарок от PrimaNota.Ru, забирай!