PrimaNota.ru - самый крупный в мире бесплатный архив песенных текстов, аккордов, табулатур и нот


Wiz Khalifa - Say Yeah - текст песни, таба, видео

Регистрация Запомнить меня
Войти через:  Facebook Google Twitter Vk Yandex Mail.ru

Wiz Khalifa - Say Yeah - текст песни, таба, видео

Печатать
Просмотров: 197
-------------------------------------------------------------------------------
                             Say Yeah - Wiz Khalifa
-------------------------------------------------------------------------------
Tabbed by: Darian Kühn

E-mail: darian.kuhn@hotmail.com
Feel free to e-mail me with any questions, concerns or corrections regarding this tab.

Tuning: Standard, EADGBe

************************************
| x   Mute note
************************************

Intro:
B|12x--12x--12x--12x

e|-------------------------------14x-14x-11-------------------------------12x-12x-11-|
B|12x--12-9-12-12x--12x--11x----------------12x--12-9-12-12x--12x--11x---------------|
G|----------------------------11----------------------------------------11-----------|
D|-----------------------------------------------------------------------------------|
A|-----------------------------------------------------------------------------------|
E|-----------------------------------------------------------------------------------|

************************************
Or you could replace the 9th note on the B string with the 13th note on the G string.
Either way sounds fine.
************************************

Intro:
B|12x--12x--12x--12x

e|--------------------------------14x-14x-11---------------------------------12x-12x-11-|
B|12x--12----12-12x--12x--11x----------------12x--12----12-12x--12x--11x----------------|
G|--------13-------------------11--------------------13-------------------11------------|
D|--------------------------------------------------------------------------------------|
A|--------------------------------------------------------------------------------------|
E|--------------------------------------------------------------------------------------|
Добавлено: 03.09.2015
Другие материалы по этой песне:
  • Аккорды и текст

Страница создана 25.02.2014
http://primanota.ru/wiz-khalifa/say-yeah-chords.htm
Привет, Гость.
Предлагаем пройти революционный курс по гитаре.
Подарок от PrimaNota.Ru, забирай!