PrimaNota.ru - самый крупный в мире бесплатный архив песенных текстов, аккордов, табулатур и нот


Within Temptation - It's The Fear - текст песни, таба, бас-таба, перевод, видео

Регистрация Запомнить меня
Войти через:  Facebook Google Twitter Vk Yandex Mail.ru

Within Temptation - It's The Fear - текст песни, таба, бас-таба, перевод, видео

Печатать
Просмотров: 515
Авторы музыки: Robert Westerholt
Авторы текста: Sharon den Adel
Title: It's the fear
Band: Within Temptation
Tabbed by Andrea Gillespie Garland

Standard tuning E-B-G-D-A-E
. = palm muted


Some parts are missing. They'll be added as soon as I figure them out.
NOTE: If you have any question or would like to correct something, or add missing parts 
contact me at
andreagillespiegarland@yahoo.com
For correct rhythm listen to the song.
I tried to tab this song as correct and clear as possible, so please appreciate the effort.
However, I'll update it and make it even more complete when possible.

Note: the intro and chorus riff is the same
Note: some notes or power chords are barely heard, but I wrote them down anyway. It's up 
you figure these little things out.


Intro

E----------------------------------------------|
B----------------------------------------------|
G----------------------------------------------|
D----------------------------------------------|
A--5--3--1--3--5--3--3--3-3-3------------------|
E--3--3--1--1--3--3--1--1-1-1------------------|
                        . . .


E------------------------------------------------|
B------------------------------------------------|
G------------------------------------------------|
D------------------------------------------------|
A--5--3--1--3--6--3--5---------------------------|
E--3--3--1--1--6--1--3---------------------------|


Verse 1 – 2nd half of first verse

E---------------------------------------------------------------------------------|
B---------------------------------------------------------------------------------|
G---------------------------------------------------------------------------------|
D---------------------------------------------------------------------------------|
A--6-6--6-6--6-6-6--3-3--3-3--3-3-3--8-8--8-8--8-8-8--5-5--5-5--5-5-5-------------|
E--6-6--6-6--6-6-6--3-3--3-3--3-3-3--6-6--6-6--6-6-6--5-5--5-5--5-5-5-------------|


E--------------------------------------------------------------------------------|
B--------------------------------------------------------------------------------|
G--------------------------------------------------------------------------------|
D--------------------------------------------------------------------------------|
A--6-6--6-6--6-6-6--3-3--3-3--3-3-3--5-5--5-5--5-5-5-----------------------------|
E--6-6--6-6--6-6-6--3-3--3-3--3-3-3--5-5--5-5--5-5-5-----------------------------|




Pre chorus


E-----------------------------------|
B-----------------------------------|
G-----------------------------------|
D-----------------------------------|
A--5-3-1-0--------------------------|
E--5-3-1-0--------------------------|

Chorus

E-------------------------------------------------|
B-------------------------------------------------|
G-------------------------------------------------|
D-------------------------------------------------|
A--5--3--1--3--5--3--3--3-3-3---------------------|
E--3--3--1--1--3--3--1--1-1-1---------------------|
                        . . .


E------------------------------------------------|
B------------------------------------------------|
G------------------------------------------------|
D------------------------------------------------|
A--5--3--1--3--6--3--5---------------------------|
E--3--3--1--1--6--1--3---------------------------|

Verse 2b (repeat 2 times) – First half of 2nd verse
The first time it's played, you can hear some power chords played in distance, and then 
starts with the next power chords 6
                                          6
Well, I'm not sure about the first power chords. However, the second time this is 
it is exactly like this:

E------------------------------------------------------------------------------------|
B------------------------------------------------------------------------------------|
G------------------------------------------------------------------------------------|
D------------------------------------------------------------------------------------|
A--5-5-5--5-5-5--5-5-5--6-6-6--6-6-6--6-6-6--3-3-3--3-3-3--3-3-3--5-5--5--5--5-5--5--|
E--3-3-3--3-3-3--3-3-3--6-6-6--6-6-6--6-6-6--3-3-3--3-3-3--3-3-3--5-5--5--5--5-5--5--|
   . . .  . . .  . . .  . . .  . . .  . . .  . . .  . . .  . . .


Verse 2 – second half of 2nd verse

E---------------------------------------------------------------------------------|
B---------------------------------------------------------------------------------|
G---------------------------------------------------------------------------------|
D---------------------------------------------------------------------------------|
A--6-6--6-6--6-6-6--3-3--3-3--3-3-3--8-8--8-8--8-8-8--5-5--5-5--5-5-5-------------|
E--6-6--6-6--6-6-6--3-3--3-3--3-3-3--6-6--6-6--6-6-6--5-5--5-5--5-5-5-------------|

E---------------------------------------------------------------------------------|
B---------------------------------------------------------------------------------|
G---------------------------------------------------------------------------------|
D---------------------------------------------------------------------------------|
A--6-6--6-6--6-6-6--3-3--3-3--3-3-3--5-5--5-5--5-5-5------------------------------|
E--6-6--6-6--6-6-6--3-3--3-3--3-3-3--5-5--5-5--5-5-5------------------------------|


Pre Chorus 2

E----------|
B----------|
G----------|
D----------|
A--1-0-----|
E--1-0-----|


Chorus


“Long ago it came to me…”

02:51

E-----------------------------------|
B-----------------------------------|
G-----------------------------------|
D-----------------------------------|
A--5-3-1-0--------------------------|
E--5-3-1-0--------------------------|

03:04

E------------------------------------------------------------------------------------|
B------------------------------------------------------------------------------------|
G------------------------------------------------------------------------------------|
D------------------------------------------------------------------------------------|
A--5-5-5--5-5-5--5-5-5--6-6-6--6-6-6--6-6-6--3-3-3--3-3-3--3-3-3--5-5--5--5--5-5--5--|
E--3-3-3--3-3-3--3-3-3--6-6-6--6-6-6--6-6-6--3-3-3--3-3-3--3-3-3--5-5--5--5--5-5--5--|
   . . .  . . .  . . .  . . .  . . .  . . .  . . .  . . .  . . .

Solo

E------------------------------------------------------|
B------------------------------------------------------|
G--9-9-9-7h9p-10-9+-7-5-4--9-9-9-5-5-7+-4--------------|
D------------------------------------------------------|
A------------------------------------------------------|
E------------------------------------------------------|

E------------------------------------------------------|
B------------------------------------------------------|
G--9-9-9-7h9p-10-9+-7-5-4--5-(5)-4-5-2-3-2-3-3-3-------|
D------------------------------------------------------|
A------------------------------------------------------|
E------------------------------------------------------|

(5) = ghost note
+ = repeated many times with alternated picking

Chorus


Ending

E-----------------------------------|
B-----------------------------------|
G-----------------------------------|
D-----------------------------------|
A--5-3-1-0--------------------------|
E--5-3-1-0--------------------------|


Missing parts: rhythm guitar behind the solo, Lead guitar in the first half of 2nd 
and the rhythm part “Long ago it came to me…”
Sorry but some things are harder to hear than others, this is why I need other people to 
If you know the missing part or would like to add something that I didn't add or 
something, email me. And don't worry, I'll give you credit too.
I did my best.


Andrea Gillespie Garland
Добавлено: 20.07.2013
Другие материалы по этой песне:

Страница создана 11.04.2012
http://primanota.ru/within-temptation/its-the-fear-chords.htm
Привет, Гость.
Предлагаем пройти революционный курс по гитаре.
Подарок от PrimaNota.Ru, забирай!