PrimaNota.ru - самый крупный в мире бесплатный архив песенных текстов, аккордов, табулатур и нот


Within Temptation - Dark Wings - текст песни, бас-таба, перевод, видео

Регистрация Запомнить меня
Войти через:  Facebook Google Twitter Vk Yandex Mail.ru

Within Temptation - Dark Wings - текст песни, бас-таба, перевод, видео

Печатать
Просмотров: 384
Уроки эстрадного вокала в Санкт-Петербурге
Авторы музыки: Robert Westerholt
Авторы текста: Sharon den Adel
Dark Wings by Within Temptation
5 string standard tuning (or 4 string droped to BEAD)
By Bertacus


INTRO

G|---------|--------|--------|---------|
D|---------|--------|--------|---------|
A|---------|--------|--------|---------|
E|-2-2--0-0|2-2--0-0|2-2--0-0|---------|
B|---------|--------|--------|0-0-2-2--| X2

G|----------|
D|----------|
A|----------|
E|-2~~~~~~~-|
B|----------|


VERSE

G|---------|--------|--------|---------|
D|---------|--------|--------|---------|
A|---------|--------|--------|---------|
E|-22220000|2222----|22220000|---------|
B|---------|----3333|--------|00002222-| X2


CHORUS

G|---------|--------|--------|---------|
D|---------|--------|--------|---------|
A|---------|--------|--------|---------|
E|-0~~~0~0~|2~~~2~2~|--------|---------|
B|---------|--------|3~~~3~3~|00002222-| X2

G|---------|---------|
D|---------|---------|
A|---------|---------|
E|---------|---------|
B|-33333333|33333333-|


BRIDGE

G|---------|--------|--------|---------|
D|---------|--------|--------|---------|
A|---------|--------|--------|---------|
E|---------|------2~|--------|---------|
B|-54222542|22542~--|54222542|22220~0~-| X2

G|---------|--------|--------|---------|
D|---------|--------|--------|---------|
A|---------|--------|--------|---------|
E|---------|--------|--------|---------|
B|-424--424|--4245~~|424--424|---------| X2

G|---------|--------|--------|---------|
D|---------|--------|--------|---------|
A|---------|--------|--------|---------|
E|---------|--------|--------|---------|
B|-20222202|222023~~|202--202|---------|

G|---------|--------|--------|---------|
D|---------|--------|--------|---------|
A|---------|--------|--------|9~7~5420~|
E|---------|--------|--------|---------|
B|-20222202|222023~~|202--202|---------|

G|---------|--------|--------|---------|
D|---------|--------|--------|---------|
A|---------|--------|--------|---------|
E|---------|--------|--------|---------|
B|-3~3~~~~~|3~3~~~~~|3~3~~~~~|3~3~~~~~-|

G|---------|--------|--------|---------|
D|---------|--------|--------|---------|
A|---------|--------|--------|---------|
E|-2~2~~~~~|2~2~~~~~|2~2~~~~~|2~2~~~~~-|
B|---------|--------|--------|---------|

G|---------|--------|--------|---------|
D|---------|--------|--------|---------|
A|---------|--------|--------|---------|
E|---------|--------|--------|---------|
B|-3~3~~~~~|3~3~~~~~|3~3~~~~~|3~3~~~~~-|

G|---------|--------|--------|---------|
D|---------|--------|--------|---------|
A|---------|--------|--------|---------|
E|-2~2~~~~~|2~2~~~~~|2~2~~~~~|2~2~~~~~-|
B|---------|--------|--------|---------|


END CHORUS

G|---------|--------|--------|---------|
D|---------|--------|--------|---------|
A|---------|--------|--------|---------|
E|-0~~~0~0~|2~~~2~2~|--------|---------|
B|---------|--------|3~~~3~3~|00002222-| X4

G|---------|--------|--------|---------|
D|---------|--------|--------|---------|
A|---------|--------|--------|---------|
E|---------|--------|--------|---------|
B|-33333333|33333333|33333333|33333333-|

G|----------|
D|----------|
A|----------|
E|----------|
B|-54222542-|





INTRO
VERSE
CHORUS
VERSE
CHORUS
INTERLUDE
INTRO
VERSE (solo)
END CHORUS
Добавлено: 12.11.2013
Другие материалы по этой песне:
  • Аккорды и текст

Страница создана 05.03.2012
http://primanota.ru/within-temptation/dark-wings-chords.htm
Привет, Гость.
Предлагаем пройти революционный курс по гитаре.
Подарок от PrimaNota.Ru, забирай!